>
 >
Times Of Trouble 1

Times Of Trouble 1 Guitar Tabs

Temple Of The Dog - Times Of Trouble 1 chords, tabs, tablatures, lyrics

Guitar lessons | Add/correct | Request | Top 50 tabs Artists:  A B C D E F G H I J K L M N O P Q R S T U V W X Y Z 0-9

Times Of Trouble 1 Guitar Tabs – Temple Of The Dog

CD, Sheet music, Poster

Do you like Times Of Trouble 1? Share with your friends now
ChordsTabsTabs v2Tabs v3
-------------------------------------------------------------------------------
                             TIMES OF TROUBLE - TEMPLE OF THE DOG
-------------------------------------------------------------------------------

Tuning: Standard EADGBE

For all the pairs of open D and G notes,

G|-0-0-
D|-5-0-

hit the second pair of open string notes lightly on the upstroke.
I would play this shape by sliding an F powerchord up two frets from 
the F to the G, then back down once you've hit the aforementioned 2 note chords.

Listen to the record for the right chord rhythms/strumming.

INTRO
e|---------------------------------------------------------------------------|
B|---------------------------------------------------------------------------|
G|--------0-0-----------------0-0----------------0-0--------------0-0--------|
D|--------5-0-----------------5-0----------------5-0--------------5-0---strum|
A|------------3-------------------3-------------------3----------------3--33-|
E|-1/3--------1---------1/3-------1-------1--1-3------1----1--1-3------1--11-|


e|---------------------------------------------------------------------------|
B|---------------------------------------------------------------------------|
G|--------0-0-------------------0-0---------------0-0-------------0-0--------|
D|--------5-0-------------------5-0---------------5-0-------------5-0--------|
A|------------3---------------------3------------------3---------------3-----|
E|-1/3--------1-----------1/3-------1-----1--1/3-------1----1--1/3-----1-----|



VERSE
e|---------------------------------------------------------------------------|
B|---------------------------------------------------------------------------|
G|---------------------------------------------------------------------------|
D|--------0------------------------------------------------------------------|
A|-------------------------------------------------------3-------------------|
E|1--1/3-----1----repeat-18? times, on the last, strum---1---into the chorus-|



CHORUS
e|------------------------------------------0--------------------------------|
B|---1----3----5----3---3-3-3-3-------------0------------------------1-------|
G|---0----0----0----0---0-0-0-0-------------0------------222-0-------0--strum|
D|---2----2----4----4---4-4-4-4-------------2--2---------222-2-------2-------|
A|---3----3----5----5---5-5-5-5---x2--------2--2---------222-2-------3-------|
E|------------------------------------------0--0--strum--000-0---------------|
                                                         ^the piano does this
Repeat this again, then lead into the end of the chorus
Also note that the rhythm of the first 4 chords (starting on the C) changes,
listen to the piano for the variation (it's just before the word "don't")


e|---------------------------------------------------------------------------|
B|--1---3---5---3---3-3-3-3-----1---1--1-----6-------------------------------|
G|--0---0---0---0---0-0-0-0-----0---0--0-----5-------------------------------|
D|--2---2---4---4---4-4-4-4-----2---2--2-----3--let ring---------------------|
A|--3---3---5---5---5-5-5-5-----3---3--3-----3----------------(0)-2----------|
E|------------------------------------------------------------------3-3--1---|
 There is piano playing as well as guitar so ^ this chord isn't perfect



BREAK after first chorus
e|---------------------------------------------------------------------------|
B|---------------------------------------------------------------------------|
G|--------0-0-------------------0-0---------------0-0--------------0-0-------|
D|--------5-5-------------------5-5---------------5-5--------------5-5-------|
A|--------5-5-3-----------------5-5-3-------------5-5--3-----------5-5-3-----|
E|-1/3--------1-----------1/3-------1-----1--1/3-------1----1--1/3-----1-----|


VERSE 2
e|---------------------------------------------------------------------------|
B|---------------------------------------------------------------------------|
G|---------------------------------------------------------------------------|
D|--------0------------------------------------------------------------------|
A|-------------------------------------------------------3-------------------|
E|1--1/3-----1----repeat-10 times, on the last, strum----1--into the chorus--|


CHORUS 2
e|------------------------------------------0--------------------------------|
B|---1----3----5----3---3-3-3-3-------------0------------------------1-------|
G|---0----0----0----0---0-0-0-0-------------0------------222-0-------0--strum|
D|---2----2----4----4---4-4-4-4-------------2--2---------222-2-------2-------|
A|---3----3----5----5---5-5-5-5---x2--------2--2---------222-2-------3-------|
E|------------------------------------------0--0--strum--000-0---------------|

Repeat this again, then lead into the end of the second chorus. Strum each
of these chords.

e|---------------------------0---3-------------------------------------------|
B|---------------------------0---3---2-h-3-3-p-2-----------------------------|
G|---------------------------X---0---2---2-2---2----Repeat all twice---------|
D|-2-------------------------4---0---2---2-2---2-----------------------------|
A|-2-------------------------4---2---0---0-0---0-----------------------------|
E|-0-------------------------2---3-------------------------------------------|
  If somebody left you...etc

On the 3rd time play this

e|---------------------------0---3-------------------------------------------|
B|---------------------------0---3---6---------------------------------------|
G|---------------------------X---0---5---------------------------------------|
D|-2-------------------------4---0---3---------------------------------------|
A|-2-------------------------4---2---3--let ring-----(0) 2-------------------|
E|-0-------------------------2---3--------------------------3-3---1----------|


BREAK after second chorus (harmonica solo)
e|---------------------------------------------------------------------------|
B|---------------------------------------------------------------------------|
G|--------0-0-------------------0-0---------------0-0--------------0-0-------|
D|--------5-5-------------------5-5---------------5-5--------------5-5-------|
A|--------5-5-3-----------------5-5-3-------------5-5--3-----------5-5-3-----|
E|-1/3--------1-----------1/3-------1-----1--1/3-------1----1--1/3-----1-----|

e|---------------------------------------------------------------------------|
B|---------------------------------------------------------------------------|
G|--------0-0-------------------0-0---------------0-0--------------0-0-------|
D|--------5-5-------------------5-5---------------5-5--------------5-5--strum|
A|--------5-5-3-----------------5-5-3-------------5-5--3-----------5-5-3-----|
E|-1/3--------1-----------1/3-------1-----1--1/3-------1----1--1/3-----1-----|


CHORUS 3
e|------------------------------------------0--------------------------------|
B|---1----3----5----3---3-3-3-3-------------0------------------------1-------|
G|---0----0----0----0---0-0-0-0-------------0------------222-0-------0--strum|
D|---2----2----4----4---4-4-4-4-------------2--2---------222-2-------2-------|
A|---3----3----5----5---5-5-5-5---x2--------2--2---------222-2-------3-------|
E|------------------------------------------0--0--strum--000-0---------------|

Repeat this again, then lead into the end of the third chorus. Strum each
of these chords.

e|---------------------------0---3-------------------------------------------|
B|---------------------------0---3---2-h-3-3-p-2-----------------------------|
G|---------------------------X---0---2---2-2---2----Repeat all x3------------|
D|-2-------------------------4---0---2---2-2---2-----------------------------|
A|-2-------------------------4---2---0---0-0---0-----------------------------|
E|-0-------------------------2---3-------------------------------------------|
  If somebody left you...etc

On the 4th time play this

e|---------------------------0---3-------------------------------------------|
B|---------------------------0---3---6---------------------------------------|
G|---------------------------X---0---5---------------------------------------|
D|-2-------------------------4---0---3---------------------------------------|
A|-2-------------------------4---2---3--let ring-----------------------------|
E|-0-------------------------2---3-------------------------------------------|

e|--------------------------------------------------------------3---Let------|
B|--------------------------------------------------------------3--ring------|
G|--------0-0-----------------0-0----------------0-0------------0------------|
D|--------5-0-----------------5-0----------------5-0------------0------------|
A|------------3-------------------3-------------------3---------2------------|
E|-1/3--------1-------1--1/3------1-------1--1/3------1---------3------------|



| /  slide up
| \  slide down
| h  hammer-on
| p  pull-off
| ~  vibrato
| +  harmonic
| x  Mute note
===============================================================================





Comments


Popular Temple Of The Dog tabs & chords
Pushin' Forward Back Bass Tabs
Hunger Strike 1 Chords
Hunger Strike 1 Tabs
Hunger Strike 2 Tabs
Pushin' Forward Back Tabs
Pushing Forward Back Tabs
Pushing Forward Back 1 Tabs
Say Hello 2 Heaven Tabs
Say Hello To Heaven Tabs
Times On Trouble 1 Tabs


Song lyrics



↑ Back to top | Tablatures and chords are parodies/interpretations of the original songs. You may use it for private study, scholarship, research or language learning purposes only
© 2014 AZChords.com Contact us | Privacy policy | DMCA | Add/correct tabs | Request tabs | Top 50 tabs