>
 >
Call Me A Dog

Call Me A Dog Guitar Tabs

Temple Of The Dog - Call Me A Dog chords, tabs, tablatures, lyrics

Guitar lessons | Add/correct | Request | Top 50 tabs Artists:  A B C D E F G H I J K L M N O P Q R S T U V W X Y Z 0-9

Call Me A Dog Guitar Tabs – Temple Of The Dog

CD, Sheet music, Poster

Do you like Call Me A Dog? Share with your friends now
ChordsTabsTabs v2Ukulele
----------------------------------------------------------------------------
----------------------------------------------------------------------------

Tuning: Standard

Guitar 1: Stone Gossard
Guitar 2: Mike McCready

I mainly did this tab because no one had the solo, the verses are just tere to complete 
song, they are not 100% accurate.... but then again neither is the solo.

Guitar 1
e|---0~~~~-------------3-------------------2--------0----------------------|
B|---1~~~~-------------3-------------------3--------1----------------------|
G|---2~~~~-------------0-------------------2--------0----------------------|
D|---2~~~~-------------0-------------------0--------2----------------------|
A|---0~~~~-------------2----------------------------3----------------------|
E|---------------------3---------------------------------------------------|
         You Call me a Dog    Well thats fair    enough

Guitar 1
e|---0~~~~-------------3-------------------2-----------0-----------0-------|
B|---1~~~~-------------3-------------------3-----------1-----------1-------|
G|---2~~~~-------------0-------------------2-----------0-----------0-------|
D|---2~~~~-------------0-------------------0-----------2-----------0-------|
A|---0~~~~-------------2-------------------------------3-----------2-------|
E|---------------------3---------------------------------------------------|
       Coz it ain't no use         To pretend   You're wrong

Guitar 1
e|---0~~~~-------------3-------------------0---------------0---------------|
B|---1~~~~-------------3-------------------0---------------1---------------|
G|---2~~~~-------------0-------------------0---------------2---------------|
D|---2~~~~-------------0-------------------2---------------3---------------|
A|---0~~~~-------------2-------------------2---------------3---------------|
E|---------------------3-------------------0-------------------------------|
          You call me out       I can't hide         anymore

Guitar 2
e|------------------------------------------------------------8-7-7--------|
B|------------------------------------------------------------------(8)/10-|
G|-------------------------------------------------------------------------|
D|-------------------------------------------------------------------------|
A|-------------------------------------------------------------------------|
E|-------------------------------------------------------------------------|

Guitar 1
e|---0~~~~-------------3-------------------0---------------0---------------|
B|---1~~~~-------------3-------------------0---------------0---------------|
G|---2~~~~-------------0-------------------0---------------0---------------|
D|---2~~~~-------------0-------------------2---------------2---------------|
A|---0~~~~-------------2-------------------2---------------2---------------|
E|---------------------3-------------------0---------------0---------------|
         I have no disguise   You can't see through

Guitar 1
e|---0~~~~-------------3-------------------2--------0----------------------|
B|---1~~~~-------------3-------------------3--------1----------------------|
G|---2~~~~-------------0-------------------2--------0----------------------|
D|---2~~~~-------------0-------------------0--------2----------------------|
A|---0~~~~-------------2----------------------------3----------------------|
E|---------------------3---------------------------------------------------|
     You say it's bad luck       To have fallen     for me

Guitar 1
e|---0~~~~-------------3-------------------2--------0----------0-----------|
B|---1~~~~-------------3-------------------3--------1----------1-----------|
G|---2~~~~-------------0-------------------2--------0----------0-----------|
D|---2~~~~-------------0-------------------0--------2----------0-----------|
A|---0~~~~-------------2----------------------------3----------2-----------|
E|---------------------3---------------------------------------------------|
           What can I do       To make it good  for you

Guitar 1
e|---0~~~~-------------3-------------------0---------------0---------------|
B|---1~~~~-------------3-------------------0---------------1---------------|
G|---2~~~~-------------0-------------------0---------------2---------------|
D|---2~~~~-------------0-------------------2---------------3---------------|
A|---0~~~~-------------2-------------------2---------------3---------------|
E|---------------------3-------------------0-------------------------------|
          You wore me out        Like an old       Winter coat

Guitar 2
e|------------------------------------------------------------8-7-7--------|
B|------------------------------------------------------------------(8)/10-|
G|-------------------------------------------------------------------------|
D|-------------------------------------------------------------------------|
A|-------------------------------------------------------------------------|
E|-------------------------------------------------------------------------|

Guitar 1
e|---0~~~~-------------3-------------------0---------------0---------------|
B|---1~~~~-------------3-------------------0---------------0---------------|
G|---2~~~~-------------0-------------------0---------------0---------------|
D|---2~~~~-------------0-------------------2---------------2---------------|
A|---0~~~~-------------2-------------------2---------------2---------------|
E|---------------------3-------------------0---------------0---------------|
         Trying to be safe       from the cold

Chorus:
Guitar 1&2
e|-----------------0-------0----------------------3-----------3------------|
B|-----------------1-------1----------------------3-----------3------------|
G|-----------------0-------0----------------------0-----------0------------|
D|-----------------2-------2----------------------0-----------0------------|
A|-----------------3-------3----------------------2-----------2------------|
E|------------------------------------------------3-----------3------------|
    But when it's my time     To throw the next stone

e|--------------2------------0-----------------------3---------------------|
B|--------------3------------1-----------------------3---------------------|
G|--------------2------------2-----------------------0---------------------|
D|--------------0------------2-----------------------0---------------------|
A|---------------------------0-----------------------2---------------------|
E|---------------------------------------------------3---------------------|
  I'll call you Beautiful        If I call at all

e|----0~~~~~---------------------------------------------------------------|
B|----0~~~~~---------------------------------------------------------------|
G|----0~~~~~---------------------------------------------------------------|
D|----2~~~~~---------------------------------------------------------------|
A|----2~~~~~---------------------------------------------------------------|
E|----0~~~~~---------------------------------------------------------------|
                You call me a Dog

Verse 2:

Guitar 1
e|---0~~~~-------------3-------------------2--------------0----------------|
B|---1~~~~-------------3-------------------3--------------1----------------|
G|---2~~~~-------------0-------------------2--------------0----------------|
D|---2~~~~-------------0-------------------0--------------2----------------|
A|---0~~~~-------------2----------------------------------3----------------|
E|---------------------3---------------------------------------------------|
      You Tell me I'm low          Coz I slept   on the floor

Guitar 1
e|---0~~~~-------------3-------------------2--------0----------0-----------|
B|---1~~~~-------------3-------------------3--------1----------1-----------|
G|---2~~~~-------------0-------------------2--------0----------0-----------|
D|---2~~~~-------------0-------------------0--------2----------0-----------|
A|---0~~~~-------------2----------------------------3----------2-----------|
E|---------------------3---------------------------------------------------|
         Out in the woods    with the badgers  & wolves

Guitar 2
e|---------------------------------------15h17p15-(very quietly)-----------|
B|-------------------------------------------------------------------------|
G|-------------------------------------------------------------------------|
D|-------------------------------------------------------------------------|
A|-------------------------------------------------------------------------|
E|-------------------------------------------------------------------------|


Guitar 1
e|---0~~~~-------------3-------------------0---------------0---------------|
B|---1~~~~-------------3-------------------0---------------1---------------|
G|---2~~~~-------------0-------------------0---------------2---------------|
D|---2~~~~-------------0-------------------2---------------3---------------|
A|---0~~~~-------------2-------------------2---------------3---------------|
E|---------------------3-------------------0-------------------------------|
         You threw me out     coz I went digging      for gold

Guitar 2
e|--------------------------------------------------------------8-7-7------|
B|-------------------------------------------------------------------(8)/10|
G|-------------------------------------------------------------------------|
D|-------------------------------------------------------------------------|
A|-------------------------------------------------------------------------|
E|-------------------------------------------------------------------------|

Guitar 1
e|---0~~~~-----------------3---------------0---------------0---------------|
B|---1~~~~-----------------3---------------0---------------0---------------|
G|---2~~~~-----------------0---------------0---------------0---------------|
D|---2~~~~-----------------0---------------2---------------2---------------|
A|---0~~~~-----------------2---------------2---------------2---------------|
E|-------------------------3---------------0---------------0---------------|
        I came home with a handful     of coal

Chorus:
Guitar 1
e|-----------------0-------0----------------------3-----------3------------|
B|-----------------1-------1----------------------3-----------3------------|
G|-----------------0-------0----------------------0-----------0------------|
D|-----------------2-------2----------------------0-----------0------------|
A|-----------------3-------3----------------------2-----------2------------|
E|------------------------------------------------3-----------3------------|
    But when it's my time     To throw the next stone

Guitar 2
e|-------------------------------------------------------------15----17/19-|
B|------------------------------------------------x-12-15-12-15---15-------|
G|-------------------------------------------------------------------------|
D|-------------------------------------------------------------------------|
A|-------------------------------------------------------------------------|
E|-------------------------------------------------------------------------|

Guitar 1
e|--------------2------------0-----------------------3---------------------|
B|--------------3------------1-----------------------3---------------------|
G|--------------2------------2-----------------------0---------------------|
D|--------------0------------2-----------------------0---------------------|
A|---------------------------0-----------------------2---------------------|
E|---------------------------------------------------3---------------------|
  I'll call you Beautiful        If I call at all

Guitar 2
e|-------------------------------------------------------------------------|
B|-----------------------x-10-12-10----8h10p8------------------------------|
G|----------------------------------12-------------------------------------|
D|-------------------------------------------------------------------------|
A|-------------------------------------------------------------------------|
E|-------------------------------------------------------------------------|

Guitar 1
e|-----------------0-------0----------------------3-----------3------------|
B|-----------------1-------1----------------------3-----------3------------|
G|-----------------0-------0----------------------0-----------0------------|
D|-----------------2-------2----------------------0-----------0------------|
A|-----------------3-------3----------------------2-----------2------------|
E|------------------------------------------------3-----------3------------|
    And when it's my time     To call your next bluff

Guitar 1
e|--------------2------------0-----------------------3---------------------|
B|--------------3------------1-----------------------3---------------------|
G|--------------2------------2-----------------------0---------------------|
D|--------------0------------2-----------------------0---------------------|
A|---------------------------0-----------------------2---------------------|
E|---------------------------------------------------3---------------------|
  I'll call you Beautiful             Or leave it alone    Yeah!

Guitar 2
e|-------------------------------------------------------------------------|
B|---------------------------12--------------------------------------------|
G|-------------------------------12-9-12-9---14p12p9h12--------------------|
D|-------------------------------------------------------------------------|
A|-------------------------------------------------------------------------|
E|-------------------------------------------------------------------------|

e|----0~~~~~---------------------------------------------------------------|
B|----0~~~~~---------------------------------------------------------------|
G|----0~~~~~---------------------------------------------------------------|
D|----2~~~~~---------------------------------------------------------------|
A|----2~~~~~---------------------------------------------------------------|
E|----0~~~~~---------------------------------------------------------------|
                You call me a Dog

Bridge:
Both Guitars
e|--2-2-2-2-2-2-2-2-2-2-2-2-2-2-2-2-2-2------------------------------------|
B|--3-3-3-3-3-3-3-3-3-3-3-3-3-3-3-3-3-3------------------------------------|
G|--2-2-2-2-2-2-2-2-2-2-2-2-2-2-2-2-2-2----------------0------3--------5---|
D|--0-0-0-0-0-0-0-0-0-0-0-0-0-0-0-0-0-0-------2------0------3-------5------|
A|------------------------------------------2-------------1------3---------|
E|----------------------------------------0-------3------------------------|
              That's fair enough                  It doesn't bother me

e|--2-2-2-2-2-2-2-2-2-2-2-2-2-2-2-2-2-2------------------------------------|
B|--3-3-3-3-3-3-3-3-3-3-3-3-3-3-3-3-3-3------------------------------------|
G|--2-2-2-2-2-2-2-2-2-2-2-2-2-2-2-2-2-2----------------0------3--------5---|
D|--0-0-0-0-0-0-0-0-0-0-0-0-0-0-0-0-0-0-------2------0------3-------5------|
A|------------------------------------------2-------------1------3---------|
E|----------------------------------------0-------3------------------------|
      Aslong as you know                         Bad luck will follow you

e|--2-2-2-2-2-2-2-2-2-2-2-2-2-2-2-2-2-2-2-2-2-2----------------------------|
B|--3-3-3-3-3-3-3-3-3-3-3-3-3-3-3-3-3-3-3-3-3-3----------------------------|
G|--2-2-2-2-2-2-2-2-2-2-2-2-2-2-2-2-2-2-2-2-2-2----------------------------|
D|--0-0-0-0-0-0-0-0-0-0-0-0-0-0-0-0-0-0-0-0-0-0----------------------------|
A|-------------------------------------------------------------------------|
E|-------------------------------------------------------------------------|
   If you keep me on a leash and you DRAG ME A-

Guitar solo:
Guitar 1
e|---0----------3--------------------2-------------------------------------|
B|---1----------3--------------------3-------------------------------------|
G|---2----------0--------------------2-------------------------------------|
D|---2----------0--------------------0-------------------------------------|
A|---0----------2----------------------------------------------------------|
E|--------------3----------------------------------------------------------|
    -LONNNGGGGGGGGGGGGGGG

Guitar 2
e|-------------------------------------------------------------------------|
B|-------------------------------------------------------------------------|
G|---12^(14)---------------------------------------------------------------|
D|-------------12^(13)v(12)-^(13)---12^(13)v(12)-^(13)--12^(13)-12^(13)----|
A|-------------------------------------------------------------------------|
E|-------------------------------------------------------------------------|

Guitar 1
e|------0--------------------0-------------3------------2------------------|
B|------1--------------------1-------------3------------3------------------|
G|------0--------------------2-------------0------------2------------------|
D|------2--------------------2-------------0------------0------------------|
A|------3--------------------0-------------2-------------------------------|
E|-----------------------------------------3-------------------------------|

Guitar 2
e|-------------------------------------------------------------------------|
B|-------------------------------------------------------------------------|
G|------------------------------------------------------------------5------|
D|-------------------------------------------------------------5h7---------|
A|------12p10--------------------3--3-3--5^(6)-3-----3-3-5/7---------------|
E|-------------12--12----\--3h5-------------------5------------------------|

Guitar 1
e|----------------0-----------------------------------0--------------------|
B|----------------1-----------------------------------1--------------------|
G|----------------0-----------------------------------0--------------------|
D|----------------2-----------------------------------0--------------------|
A|----------------3-----------------------------------2--------------------|
E|-------------------------------------------------------------------------|

Guitar 2
e|--------------------------5----------------------------------------------|
B|----------------------------8-5------------------------------------------|
G|-----7-5-7-5-7^(9)~~~-----------7-5---7^(8)-5-----5h7p5~~~~--------------|
D|------------------------------------7----------7---------------\---------|
A|-------------------------------------------------------------------------|
E|-------------------------------------------------------------------------|

Guitar 1
e|----0-------------------------3-----------------------------------------|
B|----1-------------------------3-----------------------------------------|
G|----2-------------------------0-----------------------------------------|
D|----2-------------------------0-----------------------------------------|
A|----0-------------------------2-----------------------------------------|
E|------------------------------3-----------------------------------------|

Guitar 2
e|----------10---10---------------8----8----8------------------------------|
B|------8------8----8---8-----/10---10---10---10------------8--------------|
G|---/9---9-----------9---9------------------------------9-----9-----------|
D|-------------------------------------------------------------------------|
A|-------------------------------------------------------------------------|
E|-------------------------------------------------------------------------|

Guitar 1
e|-------0---------------------------0-------------------------------------|
B|-------0---------------------------1-------------------------------------|
G|-------0---------------------------2-------------------------------------|
D|-------2---------------------------3-------------------------------------|
A|-------2---------------------------3-------------------------------------|
E|-------0-----------------------------------------------------------------|

Guitar 2
e|-------10-8------------10-8-8--------------------------------------------|
B|-------------10-8--------------8/10--------------------------------------|
G|-------------------9-----------------------------------------------------|
D|-------------------------------------------------------------------------|
A|-------------------------------------------------------------------------|
E|-------------------------------------------------------------------------|

Guitar 1
e|----------0--------------------------------------------------------------|
B|----------1--------------------------------------------------------------|
G|----------2--------------------------------------------------------------|
D|----------2--------------------------------------------------------------|
A|----------0--------------------------------------------------------------|
E|-------------------------------------------------------------------------|

Guitar 2
e|-------------------------------------------------------------------------|
B|----10\--/10-13-15-15-15-13h15p13p12-13h15p13p12-13h15p13p12-13h15p13p12-|
G|-------------------------------------------------------------------------|
D|-------------------------------------------------------------------------|
A|-------------------------------------------------------------------------|
E|-------------------------------------------------------------------------|

Guitar 1
e|-3------------------------------------------------------0----------------|
B|-3------------------------------------------------------0----------------|
G|-0------------------------------------------------------0----------------|
D|-0------------------------------------------------------2----------------|
A|-2------------------------------------------------------2----------------|
E|-3------------------------------------------------------0----------------|

Guitar 2
e|-------------------------------------------------------------------------|
B|-13h15p13p12-13h15p13p12-13h15p13p12-13h15p13p12-15-13-10~~~-------------|
G|-------------------------------------------------------------12-12----12-|
D|--------------------------------------------------------------------14---|
A|-------------------------------------------------------------------------|
E|-------------------------------------------------------------------------|

Chorus:
Guitar 1
e|-----------------0-------0----------------------3-----------3------------|
B|-----------------1-------1----------------------3-----------3------------|
G|-----------------0-------0----------------------0-----------0------------|
D|-----------------2-------2----------------------0-----------0------------|
A|-----------------3-------3----------------------2-----------2------------|
E|------------------------------------------------3-----------3------------|
    And when it's my time     To throw the next stone
              /(in time with "my")
Guitar 2     /
e|----------/------------------------------------(8)v7-5--7^(8)v7-5-5h6p5--|
B|---------/---------------------------------------------------------------|
G|-------12^(14)--14--9/12-12-12-15p12----12-------------------------------|
D|-------------------------------------14----------------------------------|
A|-------------------------------------------------------------------------|
E|-------------------------------------------------------------------------|

Guitar 1
e|--------------2------------0-----------------------3---------------------|
B|--------------3------------1-----------------------3---------------------|
G|--------------2------------2-----------------------0---------------------|
D|--------------0------------2-----------------------0---------------------|
A|---------------------------0-----------------------2---------------------|
E|---------------------------------------------------3---------------------|
  I'll call you Beautiful       If i call at all

Guitar 2
e|-----------------------------------------------------------------15-(x5)-|
B|------------------------------------------------------------15h17--------|
G|-------------------------------------------------------------------------|
D|-------------------------------------------------------------------------|
A|-------------------------------------------------------------------------|
E|-------------------------------------------------------------------------|

Guitar 1
e|-----------------0-------0----------------------3-----------3------------|
B|-----------------1-------1----------------------3-----------3------------|
G|-----------------0-------0----------------------0-----------0------------|
D|-----------------2-------2----------------------0-----------0------------|
A|-----------------3-------3----------------------2-----------2------------|
E|------------------------------------------------3-----------3------------|
    And when it's my time     To call your next bluff

Guitar 2
e|-------------------------------------------------------------------------|
B|-------------------------------------------------------------------------|
G|-----------------------------------------15\14----14-12----12-14p12---12-|
D|--------------------------------------------------------14---------14----|
A|-------------------------------------------------------------------------|
E|-------------------------------------------------------------------------|

Guitar 1
e|--------------2------------0-----------------------3---------------------|
B|--------------3------------1-----------------------3---------------------|
G|--------------2------------2-----------------------0---------------------|
D|--------------0------------2-----------------------0---------------------|
A|---------------------------0-----------------------2---------------------|
E|---------------------------------------------------3---------------------|
  I'll call you Beautiful             Or leave it alone

Guitar 2
e|----------------------------17^--15--12---17p15p12--17-------------------|
B|-------------------------------------------------------------------------|
G|-------------------------------------------------------------------------|
D|-------------------------------------------------------------------------|
A|-------------------------------------------------------------------------|
E|-------------------------------------------------------------------------|


e|----0~~~~~---------------------------------------------------------------|
B|----0~~~~~---------------------------------------------------------------|
G|----0~~~~~---------------------------------------------------------------|
D|----2~~~~~---------------------------------------------------------------|
A|----2~~~~~---------------------------------------------------------------|
E|----0~~~~~---------------------------------------------------------------|
                You call me a Dog

this is the last little bit played on piano I think (just improvise)
e|-------{5}harmonic--19--18--17--17-18-17--15h17p15---12------------------|
B|-------------------------------------------------------------------------|
G|-------------------------------------------------------------------------|
D|-------------------------------------------------------------------------|
A|-------------------------------------------------------------------------|
E|-------------------------------------------------------------------------|


That's as good as I can do at the moment. not really 100% sure with anything, I'm never 
100% sure with Mike or Stone. Hope it helps

Vote & Comment

| ^  bend (v - bend back to original note)
| /  slide up
| \  slide down
| h  hammer-on
| p  pull-off
| ~  vibrato
| +  harmonic
| x  Mute note
============================================================================





Comments


Popular Temple Of The Dog tabs & chords
Hunger Strike Bass Tabs
Reach Down Bass Tabs
Reach Down 1 Bass Tabs
All Night Thing Chords
Say Hello To Heaven Chords
Pushing Forward Back 1 Tabs
Reach Down Tabs
Times On Trouble 1 Tabs
Your Saviour Tabs
All Night Thing Ukulele


Song lyrics



↑ Back to top | Tablatures and chords are parodies/interpretations of the original songs. You may use it for private study, scholarship, research or language learning purposes only
© 2014 AZChords.com Contact us | Privacy policy | DMCA | Add/correct tabs | Request tabs | Top 50 tabs