» » »

Teitur, One N Only Tabs (ver.1)

Artists:  A B C D E F G H I J K L M N O P Q R S T U V W X Y Z # 

One N Only Tabs (ver.1)

Teitur Tabs
 Rating:
4.6/5 (9 votes)
One N Only lessons Tabs too difficult? Try these video lessons and learn fast
                THE INTRO AND THE VERSE IN THIS SONG ARE THE SAME.

CAPO 1st FRET

E------3--------------------------------------------------------|
B---------------------------0----------------------------0------|
G-----------------2-------------2--------2------------2-------2-|
D------------0---------0-------------0-----------0--------0-----|
A---------------------------------------------------------------|
E------3-----------------------------------3--------------------|


E------3------------------------------------|
B---------------------------0---------------|
G-----------------2-------------2--------2--|
D------------0---------0-------------0------| REPEAT 2X
A------3------------------------------------|
E-------------------------------------------|


pre-chorus


E------------------------------------------------------|
B-------3--------------2----------------1--------------|
G---------------2--------------0-----------------0-----|
D-----------2------2--------2-----2---------2--------2-|
A-------0-------------------------------3--------------|
E------------------------------------------------------|

CONTINUE

E-------0-------------------------|
B--------------1------------------|
G-----------------------------0---|        REPEAT 2X
D--------------------2------------|
A---------------------------------|
E---------------------------------|


CHORUS


E-------------------------------------------|
B------------------3-------------1----------|
G-------------0----------0-------------0----|
D---------0------0----0-----0-------0-----0-|
A--------------------------------0----------|
E-------3-----------------------------------|

E------------------------------------------|
B-------------------0----------3-----------|
G------------0-----------0------------0----|
D---------0-----0-----0-----0------0-----0-|
A------2------------3----------------------|
E------------------------------------------|

E-------------------------------------3-----|
B------1--------------------------------3---|
G------------0-----------0--------0-------0-|
D---------0-----0-----0-----0---0---0-------|
A------0-----------2------------------------|
E------------------------------3------------|

E-------------3----------------------------|
B----------------3-------------------------|
G------3------------3----------0------0----|
D----3---3------------------2-------2------|
A---1--------------------3--------3--------|
E------------------------------------------|

E------------------------------------------|
B------------------------------------------|
G---2-------2------------------------------|
D-----0-------0----------------------------|
A-------0-------0--------------------------|
E------------------------------------------|


then,repeat the intro again.my finger are like killing me
and im kinda lazy to type the other half to the end
;p

ENJOY!
            
Submit corrections

comments powered by Disqus
↑ Back to top | Teitur Tabs for One N Only. Lyrics for acoustic guitar and electric guitar. Tablatures and chords are parodies/interpretations of the original songs. You may use it for private study, scholarship, research or language learning purposes only