» » »

Teitur, I Was Just Thinking Tabs (ver.1)

Artists:  A B C D E F G H I J K L M N O P Q R S T U V W X Y Z # 

I Was Just Thinking Tabs (ver.1)

Teitur Tabs
 Rating:
4/5 (10 votes)
I Was Just Thinking lessons Tabs too difficult? Try these video lessons and learn fast
                -------------------------------------------------------------------------------
-------------------------------------------------------------------------------

Capo 4th Fret

Tuning: EADGBe

INTRO        <                <          <    
e|---------222--------------------------------------------------------------|
B|---------333--------------333--------222----------------------------------|
G|---------222-------0------000--------222----------------------------------|
D|-----0-----------4--------444--------222----------------------------------|X2
A|---------------2------------------0---------------------------------------|
E|-----------------------3--------------------------------------------------|

VERSE
e|---------222--------------------------------------------------------------|
B|---------333--------------333--------222----------------------------------|
G|---------222-------0------000--------222----------------------------------|
D|-----0-----------4--------444--------222----------------------------------|X2
A|---------------2------------------0---------------------------------------|
E|-----------------------3--------------------------------------------------|

I was just thinking....


BRIDGE 1
e|------000---000----000----000----000----000-----000-—--000----000------000-|
B|------333---333----333----333----333----333-----333—---333----333------222-|
G|------000---000----222----222----222----222-----222-—--222----222------222-|
D|------222---222----000----000----000----000-----000—---000----000---2-----—|
A|--2-------------------------------------------0------2------0--------------|
E|--0-------0------2------2------3------3------------------------------------|

And there's something inside this weary heard...

e|------222----------------------------------000-----000---0-----------------|
B|------333-------------333------------------333-----333---2-----------------|
G|------222------0------000------------------222-----222---0-----------------|
D|---0--------4---------444----------------0-000--0--000---2-----------------|
A|---------2-------------------0---2---4-------------------0-----------------|
E|-------------------3-------------------------------------------------------|

VERSE
e|---------222--------------------------------------------------------------|
B|---------333--------------333--------222----------------------------------|
G|---------222-------0------000--------222----------------------------------|
D|-----0-----------4--------444--------222----------------------------------|X2
A|---------------2------------------0---------------------------------------|
E|-----------------------3--------------------------------------------------|

BRIDGE 2
e|------000---000----000----000----000----000-----000-—-------000--------000--|
B|------333---333----333----333----333----333-----333—--------333--------333--|
G|------000---000----222----222----222----222-----222-—-------222--------222--|
D|------222---222----000----000----000----000-----000—------0-000------0------|
A|--2-------------------------------------------0-----2--4--------0-2-4-------|
E|--0-------0------2------2------3------3------------------------3------------|

VERSE
e|---------222--------------------------------------------------------------|
B|---------333--------------333--------222----------------------------------|
G|---------222-------0------000--------222----------------------------------|
D|-----0-----------4--------444--------222----------------------------------|X2
A|---------------2------------------0---------------------------------------|
E|-----------------------3--------------------------------------------------|


e|-----222---2--2--222-------------------------------------------------------|
B|-----333---3--2--111-------------------------------------------------------|
G|-----222---2--2--222-------------------------------------------------------|
D|--0------------------------------------------------------------------------|
A|---------------------------------------------------------------------------|
E|---------------------------------------------------------------------------|



| /  slide up
| \  slide down
| h  hammer-on
| p  pull-off
| ~  vibrato
| +  harmonic
| x  Mute note
===============================================================================
            
Submit corrections

comments powered by Disqus
↑ Back to top | Teitur Tabs for I Was Just Thinking. Lyrics for acoustic guitar and electric guitar. Tablatures and chords are parodies/interpretations of the original songs. You may use it for private study, scholarship, research or language learning purposes only