» » »

Teitur, One And Only Tabs (ver.1)

Artists:  A B C D E F G H I J K L M N O P Q R S T U V W X Y Z # 

One And Only Tabs (ver.1)

Teitur Tabs
 Rating:
4.2/5 (5 votes)
One And Only lessons Tabs too difficult? Try these video lessons and learn fast
                Teitur - One and Only

Standard tuning, capo 1st fret.

Intro
E--3-----------------------|
B--------0-----------0-----|
G------2---2-----2-------2-| x2
D----0---------0---0---0---|
A--------------------3-----|
E--3---------3-------------|

Verse
E--3------------------------3-------------------------|
B--------0-----------0-------------0-----------0------|
G------2---2-----2-----2---------2---2-----2-----2----| x2
D----0---------0---0-----0-----0---------0---0-----0--|
A---------------------------3----------3--------------|
E--3---------3----------------------------------------|

E--------------------------------|--|--------------|
B--3------2-------1-------1------|--|--------3—0---|
G------0-------0------0-----0----|x2|------0-------|
D----2-------2------2---2-----2--|--|----2---------|
A--0------0-------3--------------|--|--3-----------|
E--------------------------------|--|--------------|

Chorus
E--------------------------------------------------------|
B--------------3-----1-----0---------------3-----1-----0-|
G—0-0-----0------0-----0------0-0-----0------0-----0-----|
D-------0---0------0-----0----------2---2------2-----2---|
A---------------------------------3----------------------|
E-----3--------------------------------------------------|
                                  
E-------------3----------------------------------------------------|
B---------------------3-------3-----1-------1----------------0-----|
G—0-0-----0------0--------0-----0-------2---------2--2---2-----2---| x2
D-------0---0------0----0---0-----0---2-—-2---0h2------0---0-----0-|
A---------------------1-------------0------------------------------|
E-----3----------------------------------------------2-------------


Chorus with B part
E-----------------------------------------------------------|
B--------------3-----1-----0---------------3-----1-----0----|
G—0-0-----0------0-----0------0-0-----0------0-----0-----0--|
D-------0---0------0-----0----------2---2------2-----2-----1|
A---------------------------------3-------------------------|
E-----3-----------------------------------------------------|

E-0-----0------2-----2-----2/3—-2---------------------------------|
B---0-----0------0-----0----------3/5--3--5---5-------------5-----|
G—----0-----0------0-----0------------------0---0---------0---0---|
D-2------------1------------0-------------------------------------|
A-----------------------------------------4-------4—-4—4--------4-|
E-----------------------------------------------------------------|

E----------------------------------------2--3-|
B-5-----5----------5----1-----3----0----------|
G—---0---0------0---0-------0----0----0-------|
D--------------------------2----2----0---0----|
A-3-------3—3-3------3--0-----0----3----------|
E-------------------------------------------3-|
            
Submit corrections

comments powered by Disqus
↑ Back to top | Teitur Tabs for One And Only. Lyrics for acoustic guitar and electric guitar. Tablatures and chords are parodies/interpretations of the original songs. You may use it for private study, scholarship, research or language learning purposes only