>
 >
One And Only

One And Only Guitar Tabs

Teitur - One And Only chords, tabs, tablatures, lyrics

Guitar lessons | Add/correct | Request | Top 50 tabs Artists:  A B C D E F G H I J K L M N O P Q R S T U V W X Y Z 0-9

One And Only Guitar Tabs – Teitur

CD, Sheet music, Poster

Do you like One And Only? Share with your friends now
ChordsChords v2TabsUkulele
Teitur - One and Only

Standard tuning, capo 1st fret.

Intro
E--3-----------------------|
B--------0-----------0-----|
G------2---2-----2-------2-| x2
D----0---------0---0---0---|
A--------------------3-----|
E--3---------3-------------|

Verse
E--3------------------------3-------------------------|
B--------0-----------0-------------0-----------0------|
G------2---2-----2-----2---------2---2-----2-----2----| x2
D----0---------0---0-----0-----0---------0---0-----0--|
A---------------------------3----------3--------------|
E--3---------3----------------------------------------|

E--------------------------------|--|--------------|
B--3------2-------1-------1------|--|--------30---|
G------0-------0------0-----0----|x2|------0-------|
D----2-------2------2---2-----2--|--|----2---------|
A--0------0-------3--------------|--|--3-----------|
E--------------------------------|--|--------------|

Chorus
E--------------------------------------------------------|
B--------------3-----1-----0---------------3-----1-----0-|
G0-0-----0------0-----0------0-0-----0------0-----0-----|
D-------0---0------0-----0----------2---2------2-----2---|
A---------------------------------3----------------------|
E-----3--------------------------------------------------|
                                  
E-------------3----------------------------------------------------|
B---------------------3-------3-----1-------1----------------0-----|
G0-0-----0------0--------0-----0-------2---------2--2---2-----2---| x2
D-------0---0------0----0---0-----0---2--2---0h2------0---0-----0-|
A---------------------1-------------0------------------------------|
E-----3----------------------------------------------2-------------


Chorus with B part
E-----------------------------------------------------------|
B--------------3-----1-----0---------------3-----1-----0----|
G0-0-----0------0-----0------0-0-----0------0-----0-----0--|
D-------0---0------0-----0----------2---2------2-----2-----1|
A---------------------------------3-------------------------|
E-----3-----------------------------------------------------|

E-0-----0------2-----2-----2/3-2---------------------------------|
B---0-----0------0-----0----------3/5--3--5---5-------------5-----|
G----0-----0------0-----0------------------0---0---------0---0---|
D-2------------1------------0-------------------------------------|
A-----------------------------------------4-------4-44--------4-|
E-----------------------------------------------------------------|

E----------------------------------------2--3-|
B-5-----5----------5----1-----3----0----------|
G---0---0------0---0-------0----0----0-------|
D--------------------------2----2----0---0----|
A-3-------33-3------3--0-----0----3----------|
E-------------------------------------------3-|





Comments


Popular Teitur tabs & chords
I Run The Carousel Chords
Josephine 1 Chords
One And Only Chords
One And Only 1 Chords
Poetry And Airplanes Chords
Rough Around The Edges Chords
Dont Want You To Wake Up Tabs
One N Only Tabs
You're The Ocean Tabs
I Run The Carousel Ukulele


Song lyrics



↑ Back to top | Tablatures and chords are parodies/interpretations of the original songs. You may use it for private study, scholarship, research or language learning purposes only
© 2014 AZChords.com Contact us | Privacy policy | DMCA | Add/correct tabs | Request tabs | Top 50 tabs