» » »

Tegan And Sara, Not Tonight Tabs (ver.2)

Artists:  A B C D E F G H I J K L M N O P Q R S T U V W X Y Z # 

Not Tonight Tabs (ver.2)

Tegan And Sara Tabs
 Rating:
4/5 (4 votes)
Not Tonight lessons Tabs too difficult? Try these video lessons and learn fast
                Standard Tuning
eBGDAE
No Capo

INTRO/VERSES
e]---------------------------]
B]---------------------------]
G]--7-7-x-x--5-5-x-x--2-2--3-]
D]--7-7-x-x--5-5-x-x--3-3--3-]
A]--5-5-x-x--3-3-x-x--1-1--1-]
E]---------------------------]
Love, pull your sore ribs in
I will pull your tangles out
In the back of your car I feel like
I have traveled nowhere
What will bring me home? >
What will make me stay?  >x2
Well I don't know >
And I don't know  >x2

CHORUS (same riff)
e]---------------------------]
B]---------------------------]
G]--7-7-x-x--5-5-x-x--2-2--3-]
D]--7-7-x-x--5-5-x-x--3-3--3-]
A]--5-5-x-x--3-3-x-x--1-1--1-]
E]---------------------------]
Everything in my body says not tonight
Everything in my body says no

This basic riff is repeated throughout the entire song. 
            
Submit corrections

comments powered by Disqus
↑ Back to top | Tegan And Sara Tabs for Not Tonight. Lyrics for acoustic guitar and electric guitar. Tablatures and chords are parodies/interpretations of the original songs. You may use it for private study, scholarship, research or language learning purposes only