» » »

Tegan And Sara, Northshore Tabs (ver.2)

Artists:  A B C D E F G H I J K L M N O P Q R S T U V W X Y Z # 

Northshore Tabs (ver.2)

Tegan And Sara Tabs
Rating:
0/5 (0 votes)
Northshore lessons Tabs too difficult? Try these video lessons and learn fast
                --------------------------------------------------------------------------------
                             NORTHSHORE - Tegan and Sara
-------------------------------------------------------------------------------
So this is my first tab, how exciting. If just listen to the song you should be able to 
out the strumming pattern,
it's definitely a fun song to play! Feel free to ask me any questions if you're having 
i'll be sure to get back to ya.

Tuning: Standard

Intro:
e|----9--9----12--12----10--10----12--12------|
B|----9--9----12--12----10--10----12--12------|
G|---11-11----14--14----10--10----12--12------|
D|---11-11----14--14----12--12----14--14------|
A|----9--9----12--12----12--12----14--14------|
E|----9--9----12--12----10--10----12--12------|

Verse:
Don't Bend, Don't Blink, Don't Beg, Don't Scream.......
e|----9--9-----12--12----10--10----12--12------|
B|----9--9-----12--12----10--10----12--12------|
G|---11-11-----14--14----10--10----12--12------|
D|---11-11-----14--14----12--12----14--14------|
A|----9--9-----12--12----12--12----14--14------|
E|----9--9-----12--12----10--10----12--12------| (x4)

Chorus:
 Something so sick about this,       my misery's so addictive,
e|------9--9--9--9--9--9--9--9----10--10--10--10--10--10--10--10------|
B|------9--9--9--9--9--9--9--9----10--10--10--10--10--10--10--10------|
G|------11-11-11-11-11-11-11-11---10--10--10--10--10--10--10--10------|
D|------11-11-11-11-11-11-11-11---12--12--12--12--12--12--12--12------|
A|------9--9--9--9--9--9--9--9----12--12--12--12--12--12--12--12------|
E|------9--9--9--9--9--9--9--9----10--10--10--10--10--10--10--10------|

 I'm halfway there watching Northshore from the floor, singing to you over my shoulder
e|------12--12--12--12--12--12--12--12--------------12--12--12--12--12--12--12--12-----|
B|------12--12--12--12--12--12--12--12--------------12--12--12--12--12--12--12--12-----|
G|------14--14--14--14--14--14--14--14--------------12--12--12--12--12--12--12--12-----|
D|------14--14--14--14--14--14--14--14--------------14--14--14--14--14--14--14--14-----|
A|------12--12--12--12--12--12--12--12--------------14--14--14--14--14--14--14--14-----|
E|------12--12--12--12--12--12--12--12--------------12--12--12--12--12--12--12--12-----|

Pre-Verse:
e|----9--9----12--12----10--10----12--12------|
B|----9--9----12--12----10--10----12--12------|
G|---11-11----14--14----10--10----12--12------|
D|---11-11----14--14----12--12----14--14------|
A|----9--9----12--12----12--12----14--14------|
E|----9--9----12--12----10--10----12--12------|               (X2)

Verse:
 Don't Run, Don't Hide, Don't Hurt, Don't Lie.......
e|----9--9----12--12----10--10----12--12-------|
B|----9--9----12--12----10--10----12--12-------|
G|---11-11----14--14----10--10----12--12-------|
D|---11-11----14--14----12--12----14--14-------|
A|----9--9----12--12----12--12----14--14-------|
E|----9--9----12--12----10--10----12--12-------|          ( x4)

Chorus:
Something so sick about this,       my misery's so addictive,
e|------9--9--9--9--9--9--9--9----10--10--10--10--10--10--10--10-----|
B|------9--9--9--9--9--9--9--9----10--10--10--10--10--10--10--10-----|
G|------11-11-11-11-11-11-11-11---10--10--10--10--10--10--10--10-----|
D|------11-11-11-11-11-11-11-11---12--12--12--12--12--12--12--12-----|
A|------9--9--9--9--9--9--9--9----12--12--12--12--12--12--12--12-----|
E|------9--9--9--9--9--9--9--9----10--10--10--10--10--10--10--10-----|

I'm halfway there watching Northshore from the floor, singing to you over my shoulder
e|------12--12--12--12--12--12--12--12--------------12--12--12--12--12--12--12--12-----|
B|------12--12--12--12--12--12--12--12--------------12--12--12--12--12--12--12--12-----|
G|------14--14--14--14--14--14--14--14--------------12--12--12--12--12--12--12--12-----|
D|------14--14--14--14--14--14--14--14--------------14--14--14--14--14--14--14--14-----|
A|------12--12--12--12--12--12--12--12--------------14--14--14--14--14--14--14--14-----|
E|------12--12--12--12--12--12--12--12--------------12--12--12--12--12--12--12--12-----|

Pre-Verse:
e|----9--9----12--12----10--10----12--12-----|
B|----9--9----12--12----10--10----12--12-----|
G|---11-11----14--14----10--10----12--12-----|
D|---11-11----14--14----12--12----14--14-----|
A|----9--9----12--12----12--12----14--14-----|
E|----9--9----12--12----10--10----12--12-----|              ( x2)

Bridge: (this strumming is different from the pattern above, but i don't know how to 
that)
e|----9--9----12--12----10--10----12--12------|
B|----9--9----12--12----10--10----12--12------|
G|---11-11----14--14----10--10----12--12------|
D|---11-11----14--14----12--12----14--14------|
A|----9--9----12--12----12--12----14--14------|
E|----9--9----12--12----10--10----12--12------|               (x4)

Pre-Verse:
e|----9--9----12--12---10--10----12--12------|
B|----9--9----12--12----10--10----12--12-----|
G|----11-11----14--14----10--10---12--12-----|
D|----11-11----14--14----12--12----14--14----|
A|----9--9----12--12----12--12----14--14-----|
E|----9--9----12--12----10--10----12--12-----|                  (x2)

Verse:
 Don't Sing, Don't Talk, Don't Yell, Don't Laugh.......
e|----9--9----12--12----10--10----12--12-----|
B|----9--9----12--12----10--10----12--12-----|
G|---11-11----14--14----10--10----12--12-----|
D|---11-11----14--14----12--12----14--14-----|
A|----9--9----12--12----12--12----14--14-----|
E|----9--9----12--12----10--10----12--12-----|                    ( x4)

Chorus:
Something so sick about this,       my misery's so addictive,
e|------9--9--9--9--9--9--9--9----10--10--10--10--10--10--10--10---|
B|------9--9--9--9--9--9--9--9----10--10--10--10--10--10--10--10---|
G|------11-11-11-11-11-11-11-11---10--10--10--10--10--10--10--10---|
D|------11-11-11-11-11-11-11-11---12--12--12--12--12--12--12--12---|
A|------9--9--9--9--9--9--9--9----12--12--12--12--12--12--12--12---|
E|------9--9--9--9--9--9--9--9----10--10--10--10--10--10--10--10---|

I'm halfway there watching Northshore from the floor, singing to you over my shoulder
e|------12--12--12--12--12--12--12--12--------------12--12--12--12--12--12--12--12--|
B|------12--12--12--12--12--12--12--12--------------12--12--12--12--12--12--12--12--|
G|------14--14--14--14--14--14--14--14--------------12--12--12--12--12--12--12--12--|
D|------14--14--14--14--14--14--14--14--------------14--14--14--14--14--14--14--14--|
A|------12--12--12--12--12--12--12--12--------------14--14--14--14--14--14--14--14--|
E|------12--12--12--12--12--12--12--12--------------12--12--12--12--12--12--12--12--|    
              (x4)

end on:

e|---9--9---------------|
B|---9--9---------------|
G|--11--11--------------|
D|--11--11--------------|
A|---9--9---------------|
E|---9--9---------------|


Here are the lyrics in case you were looking for them as well:

Verse:
Don't bend, don't bleed, don't beg, don't scream, don't whine, don't fight, don't tell me.
Don't tell me, don't tell me.
Don't feel, don't tear, don't kiss, don't care, don't touch, don't want me.
Don't want me, don't want me.

Chorus:
Something's so sick about this, my misery's so addictive.
I'm halfway there watching Northshore from the floor singing to you over my shoulder.

Verse:
Don't run, don't hide, don't hurt, don't lie, don't breathe, don't try, don't find me.
Don't find me, don't find me.
Don't cringe, don't clench, don't look, don't flinch, don't know, don't go, don't leave me.
Don't leave me, don't leave me.

Chorus:
Something's so sick about this, my misery's so addictive.
I'm halfway there watching Northshore from the floor singing to you over my shoulder.

Verse:
Don't sing, don't talk, don't yell, don't laugh, don't think, don't speak, don't save me.
Don't save me, don't save me.
Don't stare, don't glare, don't heal, don't mend, don't take, don't send, don't love me.
Don't love me, don't love me.

Chorus: (x4)
Something's so sick about this, my misery's so addictive.
I'm halfway there watching Northshore from the floor singing to you over my shoulder.
Something's so sick about this, my misery's so addictive.
I'm halfway there watching Northshore from the floor singing to you over my shoulder.
Something's so sick about this, my misery's so addictive.
I'm halfway there watching Northshore from the floor singing to you over my shoulder.
Something's so sick about this, my misery's so addictive.
I'm halfway there watching Northshore from the floor singing to you over my shoulder.

************************************

| /   slide up
| \   slide down
| h   hammer-on
| p   pull-off
| ~   vibrato
| +   harmonic
| x   Mute note
| b   Bend
| pb  Pre-bend
| br  Bend release
| pbr Pre-bend release
| brb Bend release bend

************************************
            

comments powered by Disqus
↑ Back to top | Tegan And Sara Tabs for Northshore. Lyrics for acoustic guitar and electric guitar. Tablatures and chords are parodies/interpretations of the original songs. You may use it for private study, scholarship, research or language learning purposes only