» » »

Tegan And Sara, Dark Come Soon Tabs (ver.1)

Artists:  A B C D E F G H I J K L M N O P Q R S T U V W X Y Z # 

Dark Come Soon Tabs (ver.1)

Tegan And Sara Tabs
 Rating:
4.6/5 (10 votes)
Dark Come Soon lessons Tabs too difficult? Try these video lessons and learn fast
1
                
Tuning: EGDGBe (tune A down to G)
Capo: 5th fret

VERSE
(Dark, you can't...)
e|-----------------------|
B|-----------------------|
G|-----------------------|
D|-----------------------|
G|---4~--4~--4~--4~--4~--|
E|-0---0---0---0---0-----|

e|---------------------------------|
B|-----1-------1-------1-------1---|
G|-------0-------0-------0-------0-|
D|---0-------0-------0-------0-----|
G|-0-------0-------0-------0-------|
E|---------------------------------|

PRE-CHORUS
(Everything I love...)
e|---------------------------------|
B|-----0-------0-------0-------0---|
G|-------0-------0-------0-------0-|
D|---0-------0-------0-------0-----|
G|-5-------5-------5-------5-------|
E|---------------------------------|

e|---------------------------------|
B|-----1-------1-------1-------1---|
G|-------0-------0-------0-------0-|
D|---0-------0-------0-------0-----|
G|-0-------0-------0-------0-------|
E|---------------------------------|

CHORUS PT. 1
(So what, I lied...)
e|-x-x-x-x-x-x-x-x-x-x-x-x-x-x-x-x-|
B|-0-0-0-0-0-0-0-0-0-0-0-0-0-0-0-0-|
G|-0-0-0-0-0-0-0-0-0-0-0-0-0-0-0-0-|
D|-5-5-5-5-5-5-5-5-5-5-5-5-5-5-5-5-|
G|-0-0-0-0-0-0-0-0-0-0-0-0-0-0-0-0-|
E|---------------------------------|

e|-x-x-x-x-x-x-x-x-x-x-x-x-x-x-x-x-|
B|-1-1-1-1-1-1-1-1-1-1-1-1-1-1-1-1-|
G|-0-0-0-0-0-0-0-0-0-0-0-0-0-0-0-0-|
D|-0-0-0-0-0-0-0-0-0-0-0-0-0-0-0-0-|
G|-0-0-0-0-0-0-0-0-0-0-0-0-0-0-0-0-|
E|---------------------------------|

CHORUS PT. 2
(Hold out for the ones...)
e|---------------------------------|
B|-0-0-0-0-0-0-0-0-0-0-0-0-0-0-0-0-|
G|-0-0-0-0-0-0-0-0-0-0-0-0-0-0-0-0-|
D|-0-0-0-0-0-0-0-0-0-0-0-0-0-0-0-0-|
G|-4-4-4-4-4-4-4-4-4-4-4-4-4-4-4-4-|
E|---------------------------------|

e|-x-x-x-x-x-x-x-x-x-x-x-x-x-x-x-x-|
B|-1-1-1-1-1-1-1-1-1-1-1-1-1-1-1-1-|
G|-0-0-0-0-0-0-0-0-0-0-0-0-0-0-0-0-|
D|-0-0-0-0-0-0-0-0-0-0-0-0-0-0-0-0-|
G|-0-0-0-0-0-0-0-0-0-0-0-0-0-0-0-0-|
E|---------------------------------|

POST-CHORUS
e|---------------------------------|
B|-0-0-0-0-0-0-0-0-0-0-0-0-0-0-0-0-|
G|-0-0-0-0-0-0-0-0-0-0-0-0-0-0-0-0-|
D|-4-4-4-5-5-5-7-0-0-2-2-2-2-0-0-0-|
G|-0-0-0-0-0-0-0-0-0-0-0-0-0-0-0-0-|
E|---------------------------------|

******************
  ORDER OF PARTS
******************
verse-----------x2
pre-chorus------x2
verse-----------x2
pre-chorus------x2
chorus pt. 1----x2
chorus pt. 2----x2
post-chorus-----x4
verse-----------x2
pre-chorus------x2
chorus pt. 1----x2
chorus pt. 2----x2
post-chorus-----x8
            
Submit corrections

comments powered by Disqus
↑ Back to top | Tegan And Sara Tabs for Dark Come Soon. Lyrics for acoustic guitar and electric guitar. 1 Tablatures and chords are parodies/interpretations of the original songs. You may use it for private study, scholarship, research or language learning purposes only