» » »

Tegan And Sara, Come On Kids Tabs (ver.2)

Artists:  A B C D E F G H I J K L M N O P Q R S T U V W X Y Z # 

Come On Kids Tabs (ver.2)

Tegan And Sara Tabs
 Rating:
4/5 (4 votes)
Come On Kids lessons Tabs too difficult? Try these video lessons and learn fast
                -------------------------------------------------------------------------------
                            Tegan and sara- come on
-------------------------------------------------------------------------------
I think this is basically everything, there are some parts i'm missing but this is
pretty much it. enjoy
Tuning:standard

GUITAR ONE

Chords:
   Am               C                    G
e|-0-0--0-0-0-0---0-0--0-0-0-0-----0-0--0-0-0-0-----------|
B|-1-1--1-1-1-1---1-1--1-1-1-1-----3-3--3-3-3-3-----------|
G|-2-2--2-2-2-2---0-0--0-0-0-0-----0-0--0-0-0-0-----------|
D|-2-2--2-2-2-2---2-2--2-2-2-2-----0-0--0-0-0-0-----------|
A|-0-0--0-0-0-0---3-3--3-3-3-3-----2-2--2-2-2-2-----------|
E|-0-0--0-0-0-0---0-0--0-0-0-0-----3-3--3-3-3-3-----------|
pm----                ---                  ---------------|

GUITAR TWO
intro:

e|----------------------------------------------------------------------------|
B|----------------------------------------------------------------------------|
G|----7--9--10--9/12--12--9--10--9--7------7--9--10--9/5----------------------|
D|----------------------------------------------------------------------------|
A|----------------------------------------------------------------------------|
E|----------------------------------------------------------------------------|

verse 2
"you've got your prophets and your mathematicians.."
e|-----------------------------------------------------------------------------|
B|-----------------------------------------------------------------------------|
G|---7--9--10--9/12--12--9--10--9--7-------7--9--10--9/5-----------------------|
D|-----------------------------------------------------------------------------|
A|-----------------------------------------------------------------------------|
E|-----------------------------------------------------------------------------|

"tell me what my hands were made for..."

e|-----------------------------------------------------------------------------|
B|-----------------------------------------------------------------------------|
G|-----------------------------------------------------------------------------|
D|------7--7--5--3--5/7------7--7--5-------------------------------------------|
A|--5---------------------5----------------------------------------------------|
E|-----------------------------------------------------------------------------|

chorus
"so come on, come on, come on..."
e|-----------------------------------------------------------------------------|
B|-----------------------------------------------------------------------------|
G|---7--9--10--9/12--12--9--10--9--7------7--9--10--9/5------------------------|
D|-----------------------------------------------------------------------------|
A|-----------------------------------------------------------------------------|
E|-----------------------------------------------------------------------------|
Verse 4

"tell me I'm what your hands were made for"
e|-----------------------------------------------------------------------------|
B|-----------------------------------------------------------------------------|
G|-----------------------------------------------------------------------------|
D|------7--7-------3--5/7-------7--7--5----------------------------------------|
A|---5------------------------5------------------------------------------------|
E|-----------------------------------------------------------------------------|

Chorus
"and if you come down on me.."

e|-----------------------------------------------------------------------------|
B|-----------------------------------------------------------------------------|
G|-----------------------------------------------------------------------------|
D|-----------------------------------------------------------------------------|
A|-----------------------------------------------------------------------------|
E|---10--10--6--6/8--5h6--8--10--10--6--6--8-----------------------------------|


e|-----------------------------------------------------------------------------|
B|-----------------------------------------------------------------------------|
G|---7--9--10--9/12--12--9--10--9--7-----7--9--10--9/5-------------------------|
D|-----------------------------------------------------------------------------|
A|-----------------------------------------------------------------------------|
E|-----------------------------------------------------------------------------|

"come on..."
e|---------------------------------------------------------------------------|
B|---------------------------------------------------------------------------|
G|---7--9--10--9/12--12--9--10--9--7-----7--9--10--9/5 (x2)--5/7-------------|
D|---------------------------------------------------------------------------|
A|---------------------------------------------------------------------------|
E|---------------------------------------------------------------------------|
            
Submit corrections

comments powered by Disqus
↑ Back to top | Tegan And Sara Tabs for Come On Kids. Lyrics for acoustic guitar and electric guitar. Tablatures and chords are parodies/interpretations of the original songs. You may use it for private study, scholarship, research or language learning purposes only