» » »

Tegan And Sara, City Girl Tabs (ver.1)

Artists:  A B C D E F G H I J K L M N O P Q R S T U V W X Y Z # 

City Girl Tabs (ver.1)

Tegan And Sara Tabs
 Rating:
4.4/5 (7 votes)
City Girl lessons Tabs too difficult? Try these video lessons and learn fast
                Band :  Tegan and Sara
Song title :  City Girl
CAPO ON 3

I really love this song. Listen to it to get the right strumming.
Enjoy! :)

CAPO ON 3
< : strum up
* : stop the strings
~ : let ring


INTRO AND VERSE

          <        <        <        <
e------3--3--*--3--3--*--3--3--*--3--3-|
B------3--3--*--3--3--*--3--3--*--3--3-|
G------4--4--*--4--4--*--4--4--*--4--4-|
D------5--5--*--5--5--*--5--5--*--5--5-|
A------5-----*--------*--------*-------|
E---3--3-----*--------*--------*-------|

          <        <        <        <
e------0--0--*--0--0--*--0--0--*--0--0--|
B------0--0--*--0--0--*--0--0--*--0--0--|
G------0--0--*--0--0--*--0--0--*--0--0--|
D------2--2--*--2--2--*--2--2--*--2--2--|
A------2-----*--------*--------*--------|
E---0--0-----*--------*--------*--------|

CHORUS (0:28 - 0:34)

I got so city girl on you.

e------3-------2-------|
B------3-------3-------|
G------5-(x8)--2-(x8)--|
D------5-------0-------|
A------3-------X-------|
E------X-------X-------|

VERSE

CHORUS (with the let ring part)
I got so city girl on you.
e------3-------2-------|
B------3-------3-------|
G------5-(x8)--2-(x8)--|
D------5-------0-------|
A------3-------X-------|
E------X-------X-------|

I go so crazy I don't know what to do.
e------3----------3~----2~--|
B------3----------3~----3~--|
G------5-(x4)-----5~----2~--|
D------5----------5~----0~--|
A------3----------3~----X~--|
E------X----------X~----X~--|


Ooh, ooh
          <        <        <        <
e------3--3--*--3--3--*--3--3--*--3--3-|
B------3--3--*--3--3--*--3--3--*--3--3-|
G------4--4--*--4--4--*--4--4--*--4--4-|
D------5--5--*--5--5--*--5--5--*--5--5-|
A------5-----*--------*--------*-------|
E---3--3-----*--------*--------*-------|

Ooh, ooh
          <        <        <        <
e------0--0--*--0--0--*--0--0--*--0--0--|
B------0--0--*--0--0--*--0--0--*--0--0--|
G------0--0--*--0--0--*--0--0--*--0--0--|
D------2--2--*--2--2--*--2--2--*--2--2--|
A------2-----*--------*--------*--------|
E---0--0-----*--------*--------*--------|

---
I cried so hard that you pushed me further away.
I screamed so loud you called the police on me.
I got so city girl on you.
I get so sad,
That sad gets to be.
So scared that all my feelings,
They up and leave me.
I got so city girl on you.
I go so crazy I don't know what to do.
Ooh, ooh

I look so long,
I get obvious.
I look so hard,
I look obvious.
I work so much,
I miss the sun shine away.
I sleep so little,
Watch the stars fade into day.
I get so city girl on you.
I go so crazy I don't know what to do.
Ooh, ooh.

I get uncertain.
Promise I'll be perfect from now on,
But all my promises,
They're out the window once you're gone.
You pack your bags,
You say I love you but I cannot stay.
So I started smoking,
Thought the signals,
Would scare your walls away.
I got so city girl on you.
I went so crazy I didn't know what to do.
I got so city girl on you.
I went so crazy I didn't know what to do.
Ooh, ooh.

I cry so hard that you push me further away.
I scream so loud you call the police on me.
You pack your bags,
You say I love you but I cannot stay.
So I started smoking,
Thought the signals,
Would scare your walls away.
I got so city girl on you.
I went so crazy I didn't know what to do.
I got so city girl on you.
I went so crazy I didn't know what to do.
Ooh.
            
Submit corrections

comments powered by Disqus
↑ Back to top | Tegan And Sara Tabs for City Girl. Lyrics for acoustic guitar and electric guitar. Tablatures and chords are parodies/interpretations of the original songs. You may use it for private study, scholarship, research or language learning purposes only