» » »

Stranglehold Bass tabs (ver.1)

Artists:  A B C D E F G H I J K L M N O P Q R S T U V W X Y Z # 

Stranglehold Bass tabs (ver.1)

Ted Nugent
Rating:
3/5 (6 votes)

Hard to play? Try these video lessons and learn fast.
                                           Stranglehold Bass Tab


Instead of tabbing all of the measures,
I just put the riffs because they repeat
for most of the song.


Starting at 00:18 and again at 00:25
G|----------------------|
D|----------------------|
A|----------------------|
E|-------3---5----------|

Main Riff starting at 00:26 12x -
My advice is to slide the G and A notes on the string so you can get the octaves in 
They aren't slides but that's just my advice.

G|----------------------------------------------------------------------|
D|------------7-----7----7------------------------7------7----7---------|
A|---------------------------3--5---------------------------------------|
E|---3h5-5-5----5-5----5-----------------3h5-5-5----5-5-----5------3-5--|


Bass Solo at 1:44 listen for timing.

G|------------------------------------17b18-------------------------------------------|
D|--16-14-16-14-16-14----------14-----------------------------------------------------|
A|--------------------16-14-16----16------------9-7-9-7-9-7------15b16----------------|
E|----------------------------------------------------------9-------------------------|

G|----------------------------------17b18r17--17b18r17---17b18r17---17b18r17---17b18--|
D|--16-14-16-14-16-14-14--------------------------------------------------------------|
A|------------------------12-12-12----------------------------------------------------|
E|------------------------------------------------------------------------------------|


Main Riff x4 but end on this on the fourth time.

G|---------------------------------------------------------------------|
D|------------7-----7----7---------------------------------------------|
A|---------------------------3--5--------------------------------------|
E|---3h5-5-5----5-5----5-----------------3h5-5-5--5--5-3-3-5-----------|


Main Riff Then 5:55 and again at 6:28 x4

G|--------------------------------------------------------------------------|
D|------------------------------------------End-On-This---------------------|
A|---2-----2--0---0-0-0-0---0-0-0-0---0-0-0---------------------------------|
E|------3-----------------------------------3-3-3-3h5-----------------------|

At 7:45
G|-------------/14-14-14-14-14\----------------------------------------------|
D|---------------------------------------------------------------------------|
A|---------------------------------------------------------------------------|
E|---------------------------------------------------------------------------|


After Double Time Guitar Riff at 7:58 then 8:08

G|---------------------------------------------------------------------------|
D|---------------------------------------------------------------------------|
A|----------7:58---------8:08------------------------------------------------|
E|------------3------------5-------------------------------------------------|
            
Hard to play? Try these video lessons and learn fast. | Correct




comments powered by Disqus
↑ Back to top | Tablatures and chords are parodies/interpretations of the original songs. You may use it for private study, scholarship, research or language learning purposes only