» » »

Ted Nugent, Homebound Tabs (ver.1)

Artists:  A B C D E F G H I J K L M N O P Q R S T U V W X Y Z # 

Homebound Tabs (ver.1)

Ted Nugent Tabs
Rating:
3/5 (4 votes)
Homebound lessons Tabs too difficult? Try these video lessons and learn fast
                HOMEBOUND
By Ted Nugent


E|------------------------------|----------------------------------|
B|---5~~~-5---------------------|----------------------------------|
G|-----------7--6--6------------|------------------^--^--^---------|
D|--------------------7---------|---------7--9~~~--9--9--9--7~~~---|
A|-----------------------7~~~---|---7--9---------------------------|
E|------------------------------|----------------------------------|
 |                                                                 |
 |  I think some parts are Overdubed, Like this.                   |
 |                                                                 | 
E|------------------------------|----------------------------------|
B|---17~~-17--------------------|----------------------------------|
G|-----------19-18-18-----------|------------------^--^--^---------|
D|--------------------19--------|---------19-21~~--21-21-21-19~~---|
A|-----------------------19~~---|---19-21--------------------------|
E|------------------------------|----------------------------------|


E|-----------------------------------|
B|------------^--^-------------------|
G|---------7~-9--9--9--7~-6--7--6~---|
D|---7--9----------------------------|
A|-----------------------------------|
E|-----------------------------------|

E|------------------------------------------|
B|------------------------------------------|
G|---------7~--------7~--------7--6---------|
D|---7--9------7--9------7--9--------7------|
A|--------------------------------------7~--|
E|------------------------------------------|

I am still working in the solos. This is my first tab.
            
Submit corrections

comments powered by Disqus
↑ Back to top | Ted Nugent Tabs for Homebound. Lyrics for acoustic guitar and electric guitar. Tablatures and chords are parodies/interpretations of the original songs. You may use it for private study, scholarship, research or language learning purposes only