» » »

Ted Nugent, Just What The Doctor Ordered Tabs (ver.2)

Artists:  A B C D E F G H I J K L M N O P Q R S T U V W X Y Z # 

Just What The Doctor Ordered Tabs (ver.2)

Ted Nugent Tabs
 Rating:
4/5 (4 votes)
Just What The Doctor Ordered lessons Tabs too difficult? Try these video lessons and learn fast
                Just What The Doctor Ordered - Ted Nugent

Although 'Uncle Ted' plays this in 'B', I play it in
'A' because I can't sing as high as Derek St. Holmes.

Each increment = 1/16 note, so 2 inc's = 1/8 note,
4 inc's = 1/4 note, 8 inc's = 1/2 note, etc.
'>' = Sustain.

4/4 @ 152 bpm -

  A

  1 + 2 + 3 + 4 +  1 + 2 + 3 + 4 +  1 + 2 + 3 + 4 +  1 + 2 + 3 + 4 +
e|----------------|----------------|----------------|----------------|
B|----------------|----------------|----------------|----------------|
G|----------------|----------------|----------------|----------------|
D|----7>>>>>5>>>>>|--------------5-|----7>>>>>5>>>>>|--------------5-|
A|0-0-------------|7>>>>>5>>>5-57--|0-0-------------|7>>>>>5>>>5-57--|
E|----------------|----------------|----------------|----------------|

  A

e|----------------|----------------|----------------|----------------|
B|----------------|----------------|----------------|----------------|
G|----------------|----------------|----------------|----------------|
D|----7>>>>>5>>>>>|--------------5-|----7>>>>>5>>>>>|--------------5-|
A|0-0-------------|7>>>>>5>>>5-57--|0-0-------------|7>>>>>5>>>5-57--|
E|----------------|----------------|----------------|----------------|

  D

e|----------------|----------------|----------------|----------------|
B|----------------|----------------|----------------|----------------|
G|----7>>>>>5>>>>>|--------------5-|----7>>>>>5>>>>>|--------------5-|
D|0-0-------------|7>>>>>5>>>5-57--|0-0-------------|7>>>>>5>>>5-57--|
A|----------------|----------------|----------------|----------------|
E|----------------|----------------|----------------|----------------|

  A

e|----------------|----------------|----------------|----------------|
B|----------------|----------------|----------------|----------------|
G|----------------|----------------|----------------|----------------|
D|----7>>>>>5>>>>>|--------------5-|----7>>>>>5>>>>>|--------------5-|
A|0-0-------------|7>>>>>5>>>5-57--|0-0-------------|7>>>>>5>>>5-57--|
E|----------------|----------------|----------------|----------------|

  E                                 D

e|----------------|----------------|----------------|----------------|
B|----------------|----------------|----------------|----------------|
G|----9>>>>>7>>>>>|--------------7-|----7>>>>>5>>>>>|--------------5-|
D|----------------|9>>>>>7>>>7-79--|0-0-------------|7>>>>>5>>>5-57--|
A|7-7-------------|----------------|----------------|----------------|
E|----------------|----------------|----------------|----------------|

  A

e|----------------|----------------|----------------|----------------|
B|----------------|----------------|----------------|----------------|
G|----------------|----------------|----------------|----------------|
D|----7>>>>>5>>>>>|--------------5-|----7>>>>>5>>>>>|--------------5-|
A|0-0-------------|7>>>>>5>>>5-57--|0-0-------------|7>>>>>5>>>5-57--|
E|----------------|----------------|----------------|----------------|
            
Submit corrections

comments powered by Disqus
↑ Back to top | Ted Nugent Tabs for Just What The Doctor Ordered. Lyrics for acoustic guitar and electric guitar. Tablatures and chords are parodies/interpretations of the original songs. You may use it for private study, scholarship, research or language learning purposes only