» » »

Ted Nugent, Great White Buffalo Tabs (ver.1)

Artists:  A B C D E F G H I J K L M N O P Q R S T U V W X Y Z # 

Great White Buffalo Tabs (ver.1)

Ted Nugent Tabs
 Rating:
4/5 (7 votes)
Great White Buffalo lessons Tabs too difficult? Try these video lessons and learn fast
                    Finally a Great White Buffalo tab.. its right too, just remember whenever you are 
with the sing you have to tune it down half a step from standard. Have fun playing it.


e:-------------------------2-3p0-------------------------------------------|
B:-------------------------------3p0-2-2-3---------------------------------|
G:-----------------------------------2-------------------------------------|
D:---2-2p0----------2p0-0------------2-------------------------------------|
A:---------2p0-------------------------------------------------------------|
E:-0-----------3^p0-------------------------3^-----------------------------|
   m m m m m m m  m m

e:-------------------------2-3p0-------------------------------------------|
B:-------------------------------3p0-2-2-3---------------------------------|
G:-----------------------------------2-------------------------------------|
D:---222p0----------2p000------------2-------------------------------------|
A:---------2p0-------------------------------------------------------------|
E:-0-----------3^p0-------------------------3^-----------------------------|
   m mmm m m m m  m m

e:-------------------------2-3p0-------------------------------------------|
B:-------------------------------3p0-2-2-3---------------------------------|
G:-----------------------------------2-------------------------------------|
D:---2-2p0----------2p0-0------------2-------------------------------------|
A:---------2p0-------------------------------------------------------------|
E:-0-----------3^p0-------------------------3^-----------------------------|
   m m m m m m m  m m

e:-------------------------2------------------------------------------------|
B:-------------------------3---2--------------------------------------------|
G:-------------------------2---2--------------------------------------------|
D:---222p0----------2p0----0---2---2----------------------------------------|
A:---------2p0-----------------0---2----------------------------------------|
E:-0-----------3^p0----------------0----------------------------------------|
   m mmm m m m m  m m

e:-------------------------2------------------------------------------------|
B:-------------------------3---2--------------------------------------------|
G:-------------------------2---2--------------------------------------------|
D:---222p0----------2p0----0---2---2----------------------------------------|
A:---------2p0-----------------0---2----------------------------------------|
E:-0-----------3^p0----------------0----------------------------------------|
   m mmm m m m m  m m

e:-------------------------2-----------------------------------------------|
B:-------------------------3---2-------------------------------------------|
G:-------------------------2---2-------------------------------------------|
D:---222p0----------2p0----0---2-------------------------------------------|
A:---------2p0-----------------0-------------------------------------------|
E:-0-----------3^p0--------------------------------------------------------|
   m mmm m m m m  m m

       "Alright!"

e:---------------2-3p0-----------------------------------------------------|
B:-----3-------3------3p0--2-2-3-------------------------------------------|
G:-------------2-----------2-----------------------------------------------|
D:-----2-------0-----------2-----------------------------------------------|
A:-----2-------------------0-----------------------------------------------|
E:-0-0-0--000----------------------3^--------------------------------------|
   p p    ppp

(the rift underneath is played in the backround after he says "Alright!")
e:-4-4------2--9----4------4--2--9------------------------------------------|
B:-5---5----3--10---5------5--3--10-----------------------------------------|
G:-4-----4--2--9----4-4----4--2--9------------------------------------------|
D:----------------------6---------------------------------------------------|
A:--------------------------------------------------------------------------|
E:--------------------------------------------------------------------------|
            
Submit corrections

comments powered by Disqus
↑ Back to top | Ted Nugent Tabs for Great White Buffalo. Lyrics for acoustic guitar and electric guitar. Tablatures and chords are parodies/interpretations of the original songs. You may use it for private study, scholarship, research or language learning purposes only