» » »

Team Sleep, Natalie Portman Tabs (ver.2)

Artists:  A B C D E F G H I J K L M N O P Q R S T U V W X Y Z # 

Natalie Portman Tabs (ver.2)

Team Sleep Tabs
Rating:
3/5 (2 votes)
Hard to play? Try these video lessons and learn fast.
                Hella tired when I made this. Hope you guys enjoy it.

NATALIE PORTMAN:

 Guitar 1:
e -----------------------------------------------|
B -----------------------------------------------|
G -----------5 5---------------------      -9wv--|
D ---5-5-5/7-----7 7 2 2 2 2 2 2 2 2-      -8wv--|
A -------------------0 0 0 0 0 0 0 0-------------|
E -3---------------------------------------------|

 Guitar 2:
e ---------------------|
B ---------------------|
G --9----------------8-|
D ---------------------|
A ---------------------|
E ---------------------|

e -------------------|
B -------------------|
G --9------8----13wv-|
D -------------------|
A -------------------|
E -------------------|

e -----------------|
B -----------------|
G --9---9----8--9--|
D -----------------|
A -----------------|
E -----------------|

e --------------|
B --------------|
G --9---8--13wv-|
D --------------|
A --------------|
E --------------|

e --------------|
B --------------|
G --9---11--9-8-|
D --------------|
A --------------|
E --------------|

following ¨not gonna wait for you anymore...¨
e ---------------|
B ---------------|
G --9--------9-8-|
D ---------------|
A ---------------|
E ---------------|

e ------------------|
B ------------------|
G --9------8---13wv-|
D ------------------|
A ------------------|
E ------------------|

e -----------------------------|
B -----------------------------|
G --9-------9-9-8----8\6-----8-|
D -----------------------------|
A -----------------------------|
E -----------------------------|

following "im not gonna look at you anymore, the same way..."
e ---------------|
B ---------------|
G --9------9---8-|
D ---------------|
A ---------------|
E ---------------|

e -----------------|
B -----------------|
G --8-h9-8----13wv-|
D -----------------|
A -----------------|
E -----------------|

e --------------------------------------------------|
B --------------------------------------------------|
G -13\9----11-----9---9-9-8----8-6----6----8----8-8-|
D --------------------------------------------------|
A --------------------------------------------------|
E --------------------------------------------------|

e -----------------------------------|
B -----------------------------------|
G --9-9----8----8----9----9----13-13-|
D -----------------------------------|
A -----------------------------------|
E -----------------------------------|

e ------------------------------|
B ------------------------------|
G --13\9----9/11----\8------9\6-|
D ------------------------------|
A ------------------------------|
E ------------------------------|
            

comments powered by Disqus
↑ Back to top | Team Sleep Tabs for Natalie Portman. Lyrics for acoustic guitar and electric guitar. Tablatures and chords are parodies/interpretations of the original songs. You may use it for private study, scholarship, research or language learning purposes only