» » »

Natalie Portman Tabs (ver.3)

Artists:  A B C D E F G H I J K L M N O P Q R S T U V W X Y Z # 

Natalie Portman Tabs (ver.3)

Team Sleep
Rating:
1/5 (1 vote)

Hard to play? Try these video lessons and learn fast.
                I'm pretty sure this song is in standard tuning. I've only got 1 guitar part done. I'm
listening to the live recording off the internet so it includes the loud, quick ending.

Intro Gtr
E|------------------------|
B|------------------------|
G|----------4-------------|
D|--4-/-6-6---6-6-1-1-----|
A|--------------------2-2-|
E|-0----------------------|

Chords
E|-0--0--0--0--0--0--0--0-|-4--4--4--4--4--4--4--4-| I'm wasn't sure how to 
B|-0--0--0--0--0--0--0--0-|-4--4--4--4--4--4--4--4-| tab this part? But the
G|-1--1--1--1--1--1--1--1-|-4--4--4--4--4--4--4--4-| chords last for 8 secs.
D|-2--2--2--2--2--2--2--2-|-6--6--6--6--6--6--6--6-| 
A|-2--2--2--2--2--2--2--2-|-6--6--6--6--6--6--6--6-|
E|-0--0--0--0--0--0--0--0-|-4--4--4--4--4--4--4--4-|

E|---------------------------------|---------------------------------|
B|---------------------------------|---------------------------------|
G|---------------------------------|---------------------------------|
D|-2-2-2-2-2-2-2-2-2-2-2-2-2-2-2-2-|-6-6-6-6-6-6-6-6-6-6-6-6-6-6-6-6-|
A|-2-2-2-2-2-2-2-2-2-2-2-2-2-2-2-2-|-6-6-6-6-6-6-6-6-6-6-6-6-6-6-6-6-|
E|-0-0-0-0-0-0-0-0-0-0-0-0-0-0-2-2-|-4-4-4-4-4-4-4-4-4-4-4-4-4-4-4-4-|

The part above is a buildup part. Played quickly. I think the lead is
pretty much correct on the other submitted tabs, but it's fairly easy
to work out for yourself.
            
Hard to play? Try these video lessons and learn fast. | Correct




comments powered by Disqus
↑ Back to top | Tablatures and chords are parodies/interpretations of the original songs. You may use it for private study, scholarship, research or language learning purposes only