» » »

Poem Tabs (ver.3)

Artists:  A B C D E F G H I J K L M N O P Q R S T U V W X Y Z # 

Poem Tabs (ver.3)

Taproot
Rating:
0/5 (0 votes)

Hard to play? Try these video lessons and learn fast.
                Standard TUning


This Song is great but not difficult, so I took a look on the other tabs
they're good but I'm playing it different and the Tuning isn't good for
my guitar so I'm playing it with the Standard Tuning. Well, here it is...


Intro/Chorus:

e|------------------------------------------------------------------------|
B|------------------------------------------------------------------------|
G|---------------7-7------------------------------------------------------|
D|-9-9--5-5-5-5--7-7--7-7-7-7----9-9--5-5-5-5--5-7-7--5-7-7/8-------------|
A|-9-9--5-5-5-5--5-5--7-7-7-7----9-9--5-5-5-5--5-7-7--5-7-7/8-------------|
E|-7-7--3-3-3-3-------5-5-5-5----7-7--3-3-3-3--3-5-5--3-5-5/6-------------|


Intro/Verse (Distortion):

e|------------------------------------------------------------------------|
B|------------------------------------------------------------------------|
G|------------------------------------------------------------------------|
D|-0--2-2--0--2-2--2/3----------------------------------------------------|
A|-0--2-2--0--2-2--2/3----------------------------------------------------|
E|-0--2-2--0--2-2--2/3----------------------------------------------------|


Verse (clean):

e|------------------------------------------------------------------------|
B|------------------------------------------------------------------------|
G|-2--4-4--2--4-4--4/5----------------------------------------------------|
D|-2--4-4--2--4-4--4/5----------------------------------------------------|
A|-0--2-2--0--2-2--2/3----------------------------------------------------|
E|------------------------------------------------------------------------|


Interlude:

e|------------------------------------------------------------------------|
B|------------------------------------------------------------------------|
G|------------------------------------------------------------------------|
D|-0-222---0-222---0-222--------------------------------------------------|
A|-0-222---0-222---0-222--------------------------------------------------|
E|-0-222---0-222---0-222--------------------------------------------------|


Intro/Chorus
Intro/Verse (Distortion)
Verse (clean)
Verse (Distortion)
Chorus
Verse (clean)
Verse (Distotion)
Chorus
Interlude
Verse (Distortion)
Chorus

Well, that's it.. Have Fun!
--------------------------> Babylon
            
Hard to play? Try these video lessons and learn fast. | Correct




comments powered by Disqus
↑ Back to top | Tablatures and chords are parodies/interpretations of the original songs. You may use it for private study, scholarship, research or language learning purposes only