» » »

Poem Tabs (ver.2)

Artists:  A B C D E F G H I J K L M N O P Q R S T U V W X Y Z # 

Poem Tabs (ver.2)

Taproot
Rating:
0/5 (0 votes)

Hard to play? Try these video lessons and learn fast.
                                                   Taproot - Poem
Standard Tuning - E, A, D, G, B, E

Intro/Chorus
----------------------------------------|------------------------------
----------------------------------------|------------------------------
----------------------------------------|------------------------------
---9-9-9---5-5-5---12-12-12---7-7-7-----|---5--7---5--7-----8----------
---9-9-9---5-5-5---12-12-12---7-7-7-----|---5--7---5--7-----8----------
---7-7-7\--3-3-3/--10-10-10\--5-5-5-----|---3/-5---3/-5-----6----------

Verse
-----------------------------------
-----------------------------------
-----------------------------------
---7--9---7--9-----10--------------
---7--9---7--9-----10--------------
---5/-7---5/-7-----8---------------

Chorus

Verse

Chorus

BreakDown
----------------------------|------------------------------------------
----------------------------|------------------------------------------
----------------------------|------------------------------------------
---9--9-----9--9-----9--9---|---7--9---7--9-----10---------------------
---9--9-----9--9-----9--9---|---7--9---7--9-----10---------------------
---7--7-----7--7-----7--7---|---5/-7---5/-7-----8----------------------

Chorus

Outro
-----------------------|---------------------
-----------------------|---------------------
-----------------------|---------------------
---5--7---5--7-----8---|----9----------------
---5--7---5--7-----8---|----9----------------
---3/-5---3/-5-----6---|----7----------------
            
Hard to play? Try these video lessons and learn fast. | Correct




comments powered by Disqus
↑ Back to top | Tablatures and chords are parodies/interpretations of the original songs. You may use it for private study, scholarship, research or language learning purposes only