>
 >
Everything

Everything Guitar Tabs

Taproot - Everything chords, tabs, tablatures, lyrics

Guitar lessons | Add/correct | Request | Top 50 tabs Artists:  A B C D E F G H I J K L M N O P Q R S T U V W X Y Z 0-9

Everything Guitar Tabs – Taproot

CD, Sheet music, Poster

Do you like Everything? Share with your friends now
Bass TabsTabsTabs v2
Band- Taproot
Song- Everything

Mike: Gtr.1    Tuning (A D G C E A)
Stephen: Gtr.2 Tuning (A D A D F# A)

Intro (Gtr.1)

|-0-0-0-0-0-0-0-0-0-0-0-0-0-0-0-0-0-0-0-0-0-0-0-0-0-0-0-0-0-0-0-0-0-0-0-|
|-7-7-7-7-7-7-7-7-7-7-7-5-5-5-5-5-5-5-5-5-5-5-5-7-7-7-7-7-7-7-7-7-7-7-7-|
|-----------------------------------------------------------------------|
|-----------------------------------------------------------------------|
|-----------------------------------------------------------------------|
|-----------------------------------------------------------------------|

--0-0-0-0-0-0-0-0-0-0-0-0-0-0-0-0-0-0-0-0-0-0-0-0-0-0-0-0-0-0-0-0-0-0-0--|
--4-4-4-4-4-4-4-4-4-4-4-9-9-9-9-9-9-9-9-9-9-9-9-101010101010101010101010-|
-------------------------------------------------------------------------|
-------------------------------------------------------------------------|
-------------------------------------------------------------------------|
-------------------------------------------------------------------------|

--0-0-0-0-0-0-0-0-0-0-0-0-(0)-|
--4-4-4-4-4-4-4-4-4-4-4-4-(4)-|
------------------------------|
------------------------------|
------------------------------|
------------------------------|

(Gtr.2)

|---------------------|
|---------------------|
|---------------------|
|-0h2-2---------------|
|-0h2-2-2-0-2-3-2-0-2-|
|---------------------|x7
  p.m................
 Gtr.2
|-------|
|-------|
|-------|
|-0h2-2-|
|-0h2-2-|
|-------|

Gtr.1 (Before the Verse)
|-------------|
|-------------|
|-/4-2--------|
|------2-1~-2-|
|-----------0-|
|-------------|

Verse (Gtr.2) Distorted

|-------|
|-------|
|-------|
|-0h2-2-|
|-0h2-2-|
|-------|x4

In the Background guitar 1 (clean)

|------------------------------|
|------------------------------|
|------------------------------|
|-2-4-4-4-5-4-2--2-4-4-4-2-2h5-|
|-0-2-2-2-3-2-0--0-2-2-2-0-0h3-|
|------------------------------|x4

Gtr.1

|---------7-----------------|
|------10---10--------------|
|-----9-------9----------10-|
|---9-----------9-----10----|
|-7---------------7/8-------|
|---------------------------|x2

Chorus

 Gtr.1
|--------------------------------------------------------------------------------|
|--------------------------------------------------------------------------------|
|----------4-2-----------------4-2-4-4^-2---------4-2----------------------------|
|-2h4-4-4------2-1-2~--2h4-4-4------------2h4-4-4-----2-1-2~-2h4-4-4-------------|
|-0h2-2-2----------0~--0h2-2-2------------0h2-2-2---------0~-0h2-2-2--2-0-2-2^-0-|
|--------------------------------------------------------------------------------|
|Gtr.2                                                                           |
|--------------------------------------------------------------------------------|
|--------------------------------------------------------------------------------|
|--------------------------------------------------------------------------------|
|-0h2-2-2--7-5-----0~--0h2-2-2-7-5-7-7^-5-2h4-4-4-7-5-----0~-0h2-2-2--7-5--------|
|-0h2-2-2------7-6-0~--0h2-2-2------------0h2-2-2-----7-6-0~-0h2-2-2------7-6--0-|
|--------------------------------------------------------------------------------|


Bridge

 Gtr.1
|-------0-0-0-0-0--------0-0-0-0~-|
|-------7-5-4-5-4--------7-5-4-5--|
|---------------------------------|
|-2h4-4------------2h4-4----------|
|-0h2-2------------0h2-2----------|
|---------------------------------|x3
|Grt.2                            |
|---------------------------------|
|---------------------------------|
|---------------------------------|
|-0h2-2------------0h2-2----------|
|-0h2-2------------0h2-2----------|
|---------------------------------|x3


|-------------------|
|-------------------|
|-------/4-2--------|
|-2h4-4------2-1~-2-|
|-0h2-2-----------0-|
|-------------------|


Outro
 Gtr.1
|------------------------------|
|------------------------------|
|------------------------------|
|-0-2-2-2-3-2-0--0-2-2-2-0-0h3-|
|-0-2-2-2-3-2-0--0-2-2-2-0-0h3-|
|------------------------------|x7

|---------------------------|
|---------------------------|
|---------------------------|
|-0-2-2-2-3-2-0--0----------|
|-0-2-2-2-3-2-0--0-2-2^-2-0-|
|---------------------------|


(Gtr.1)

|-0-0-0-0-0-0-0-0-0-0-0-0-0-0-0-0-0-0-0-0-0-0-0-0-0-0-0-0-0-0-0-0-0-0-0-|
|-7-7-7-7-7-7-7-7-7-7-7-5-5-5-5-5-5-5-5-5-5-5-5-7-7-7-7-7-7-7-7-7-7-7-7-|
|-----------------------------------------------------------------------|
|-----------------------------------------------------------------------|
|-----------------------------------------------------------------------|
|-----------------------------------------------------------------------|

--0-0-0-0-0-0-0-0-0-0-0-0-0-0-0-0-0-0-0-0-0-0-0-0-0-0-0-0-0-0-0-0-0-0-0--|
--4-4-4-4-4-4-4-4-4-4-4-9-9-9-9-9-9-9-9-9-9-9-9-101010101010101010101010-|
-------------------------------------------------------------------------|
-------------------------------------------------------------------------|
-------------------------------------------------------------------------|
-------------------------------------------------------------------------|

--0-0-0-0-0-0-0-0-0-0-0-0-(0)-|
--4-4-4-4-4-4-4-4-4-4-4-4-(4)-|
------------------------------|
------------------------------|
------------------------------|
------------------------------|

(Gtr.2)

|-------------------|
|-------------------|
|-------------------|
|-2h2-2-------------|
|-0h2-2-2-2-2-3-2-2-|
|-------------------|x7
  p.m..............

End on

|---------|
|---------|
|---------|
|-2h4-4\\-|
|-0h2-2\\-|
|---------|
|Gtr.2    |
|---------|
|---------|
|---------|
|-0h2-2\\-|
|-0h2-2\\-|
|---------|





Comments


Popular Taproot tabs & chords
Emotional Times 1 Bass Tabs
Negative Rein4sment 2 Bass Tabs
Poem Bass Tabs
Poem 4 Bass Tabs
Emotional Times 1 Tabs
Free Tabs
Hate Myself Tabs
Path Less Taken Tabs
Poem (Intro Ver 4) Tabs
Poem Ukulele


Song lyrics



↑ Back to top | Tablatures and chords are parodies/interpretations of the original songs. You may use it for private study, scholarship, research or language learning purposes only
© 2014 AZChords.com Contact us | Privacy policy | DMCA | Add/correct tabs | Request tabs | Top 50 tabs