» » »

Taproot, Everything Bass tabs (ver.1)

Artists:  A B C D E F G H I J K L M N O P Q R S T U V W X Y Z # 

Everything Bass tabs (ver.1)

Taproot Tabs
Rating:
0/5 (0 votes)
Everything lessons Tabs too difficult? Try these video lessons and learn fast
                Taproot - Everything

bass tab


5-stringed bass
G D A E B

   INTRO
G-|------------------|---|---------|
D-|------------------|---|---------|
A-|------------------|---|---------|
E-|------------------|---|-4-------|
B-|-3h5-55-66-3h5-55-|---|-----3---|
                       +                                                       

   VERSO
G-|--------------|---------------|
D-|--------------|---------------|
A-|--------------|---------------|
E-|--------------|---------------|
B-|-3h5-55-6-5-3-|-3h5-55-3---66-|
                                                                              

   PRE-CORO
G-|---------------|
D-|---------------|
A-|---------------|
E-|-555555--------|
B-|--------666666-|
                                                                              

   CORO
G-|-----------------|----------------------|
D-|-----------------|----------------------|
A-|-----------------|----------------------|
E-|---------4-------|----------------------|
B-|-5-55-21-----3---|-5-555-5-33---6---3---|
                                                                              

   BREAK
G-|--------------|--------------|
D-|--------------|--------------|
A-|--------------|--------------|
E-|--------------|----------4---|
B-|-3h5-55-6-5-3-|-3h5-55-3---5-|
                                                                              
 
   MIDDLE
G-|------|--------------|------------------|--------------|
D-|------|--------------|--------------4---|--------------|
A-|------|-------555555-|-------55---5---5-|-------555555-|
E-|------|--------------|----------5-------|--------------|
B-|-3-55-|-3h5-5--------|-3h5-5------------|-3h5-5--------|
                                                                              

G-|----------------------|------------------|----------------------|
D-|----------------44----|------------------|----------------55----|
A-|-------55----55----55-|-------55-5-5-5---|-------55----55----55-|
E-|----------55----------|------------------|----------55----------|
B-|-3h5-5----------------|-3h5-5------------|-3h5-5----------------|
                                                                              

G-|---------|----|---------|
D-|---------|----|---------|
A-|---------|----|---------|
E-|---------|----|-4-------|
B-|-3h5-5---|----|-----3---|
                                                                              

   FIN
G-|--------------|---|----------|
D-|--------------|---|----------|
A-|--------------|---|----------|
E-|--------------|---|----------|
B-|-3h5-55-6-5-3-|---|--3-5-5/0-|
                   +                 

Mando una saludo unicamente a La Daky y a La Yarit porque una vez pues nos hemos encontrado
y hemos ido a mi casa a armar una casita de stege que se a rajado La Yaret.
solo habia tijera con hoja destruida y un destornillador para cortar la cinta adhesiva.
luego se han ido asustadas porque era 7 pm y les iban a linchar en sus casas si no llegaban
a las 6 pm de ese dia.                                          
            

comments powered by Disqus
↑ Back to top | Taproot Bass for Everything. Lyrics for acoustic guitar and electric guitar. Tablatures and chords are parodies/interpretations of the original songs. You may use it for private study, scholarship, research or language learning purposes only