array
(
    
'emotionaltimes' => 'emotionaltimes'
    'taproot' 
=> 'taproot'
)
Emotional Times Bass tabs (ver. 1) by Taproot @ AZ CHORDS.COM
» » »

Emotional Times Bass tabs (ver.1)

Artists:  A B C D E F G H I J K L M N O P Q R S T U V W X Y Z # 

Emotional Times Bass tabs (ver.1)

Taproot
Rating:
5/5 (1 vote)

Hard to play? Try these video lessons and learn fast.
                Taproot - Emotional Times

Intro
G|-------------------------------------------------|
D|-------------------------------------------------|
A|-------------------------------------------------|
E|-------------------------------------------------|
A|-0~----------8~----------5~----------8~----------|

Break
G|-------------------------|
D|-------------------------|
A|-------------------------|
E|-------------------------|
A|-22-2-22-2-2-11-1-11-1-1-|

Verse
G|-------------------------------------------------|
D|-------------------------------------------------|
A|-------------------------------------------------|
E|-------------------------------------------------|
A|-0~----------8~----------55-5-55-5-5-88-8-88-8-8-|

G|-------------------------------------------------|
D|-------------------------------------------------|
A|---------------------------------------------8---|
E|-------------------------------------------8---8-|
A|-00-0-00-0-0-88-8-88-8-8-55-5-55-5-5-88-8-8------|

G|-------------------------------------------------|
D|-------------------------------------------------|
A|-------0-----------8-------------------------8---|
E|----0-----0-----8-----8--------------------8---8-| x2
A|-0-----------8-----------55-5-55-5-5-88-8-8------|

Chorus
G|-------------------------------------------------|
D|-------------------------------------------------|
A|-------------------------------------------------|
E|-------------------------------------------------|
A|-55-5-55-5-5-88-8-88-8-8-22-2-22-2-2-11-1-11-1-1-|

2nd Verse
G|-------------------------------------------------|
D|-------------------------------------------------|
A|-------------------------------------------------|
E|-------------------------------------------------|
A|-00-0-00-0-0-88-8-88-8-8-55-5-55-5-5-88-8-88-8-8-|

G|-------------------------------------------------|
D|-------------------------------------------------|
A|---------------------------------------------8---|
E|-------------------------------------------8---8-|
A|-00-0-00-0-0-88-8-88-8-8-55-5-55-5-5-88-8-8------|

G|-------------------------------------------------|
D|-------------------------------------------------|
A|-------0-----------8-------------------------8---|
E|----0-----0-----8-----8--------------------8---8-| x2
A|-0-----------8-----------55-5-55-5-5-88-8-8------|

Chorus x1
Chorus vaiation
G|-----------------------------------------------------|
D|-----------------------------------------------------|
A|-----------------------------------------------------|
E|-----------------------------------------------------|
A|-55-5-55-5-5-88-8-88-8-8-22-2-22-2-2-3p0-0-0h2-2h3-3-|

Rest
Bridge
G|----------------|
D|----------------|
A|----------------|
E|----------------| x4
A|3p0-0-0h2-2h3-3-|

Interlude
G|----------------------|
D|-------------------5--|
A|----------------3-----|
E|-------------5--------|
A|-0~-------------------|

G|----------------------|
D|-------------------5--|
A|----------------3-----|
E|-^^----------5--------| x3
A|-12~/-----------------|

G|----------------------|
D|----------------------|
A|----------------------|
E|-------------^^-------| x7
A|-00-0-00-0-0-12~/-----|

G|----------------------|
D|----------------------|
A|----------------------|
E|-------------^^-------| x7
A|-00-0-00-0-0-12~/-1111|

Break x2
Chorus x1
Chorus variation
Bridge x5
            
Hard to play? Try these video lessons and learn fast. | Correct




comments powered by Disqus
↑ Back to top | Tablatures and chords are parodies/interpretations of the original songs. You may use it for private study, scholarship, research or language learning purposes only