» » »

Emotional Times Bass tabs (ver.2)

Artists:  A B C D E F G H I J K L M N O P Q R S T U V W X Y Z # 

Emotional Times Bass tabs (ver.2)

Taproot
Rating:
0/5 (0 votes)

Hard to play? Try these video lessons and learn fast.
                Taproot - Emotional times

bass tab


5-stringed bass
G D A E B

   VERSO 1
G-|---------------------|
D-|---------------------|
A-|---------------------|
E-|-5555----------------|
B-|------6666-3333-6666-|
                                                                              

   BREAK 1
G-|-----------|
D-|-----------|
A-|-----------|
E-|-7777-6666-|
B-|-----------|
                                                                              

   VERSO 2
G-|---------------------------|
D-|-----7---------------------|
A-|---7---7-----8-------------|
E-|-5---------8---8-----------|
B-|---------6-------3333-6666-|
    
                                                                          
   CORO
G-|----------------|
D-|----------------|
A-|----------------|
E-|------888777666-|
B-|-3333-----------|
                                                                              

   BREAK 2
G-|--------------|
D-|--------------|
A-|--------------|
E-|-555-66-77-88-|
B-|--------------|
                                                                              

   MIDDLE
G-|-------------|-------------|
D-|---------7---|---------7---|
A-|-------7-----|-------7-----|
E-|-5---5-------|-5\0-5-------|
B-|-------------|-------------|
                                                                              

G-|-------|------|
D-|-------|------|
A-|-------|------|
E-|-5\0/5-|-5555-|
B-|-------|------|
                                                                              

   FIN
G-|-----------|
D-|-----------|
A-|-----------|
E-|-555-6-7-8-|
B-|-----------|
                     
Un saluto bien este ps, bien grande a La Andrea Sanjines de mi facultad porque le dado unas llamas
muy hechas a lo tara y con canciones de ebriedad ya que estaba galopando de alegria y no queria
dejarla de ver. Un ultimo mensaje para ella: qué llama la llama que te dado, tan tara como
la cara que has puesto, YAAAAAAAAAAAAAAAAAAAAAAAAAST.

doky2007  
            
Hard to play? Try these video lessons and learn fast. | Correct




comments powered by Disqus
↑ Back to top | Tablatures and chords are parodies/interpretations of the original songs. You may use it for private study, scholarship, research or language learning purposes only