>
 >
Mourning 4

Mourning 4 Guitar Tabs

Tantric - Mourning 4 chords, tabs, tablatures, lyrics

Guitar lessons | Add/correct | Request | Top 50 tabs Artists:  A B C D E F G H I J K L M N O P Q R S T U V W X Y Z 0-9

Mourning 4 Guitar Tabs – Tantric

CD, Sheet music, Poster

Do you like Mourning 4? Share with your friends now
Bass TabsChordsChords v2TabsTabs v2Tabs v3Tabs v4Ukulele
Tune all strings down a half step, then drop Gb to F.

Low To High - Eb Ab Db F Bb Eb


This is my best guess.  I tabbed it off a download of a radio station acoustic gig.


Intro Riff:

|---------0-----------------0---------------0----------0--------0------------|

|-----------0---------------0----------------0--------0--------0-------------|

|--------------------------0-------0------------0------------------------------|

|------9----------------7-----------0------2----------5----------------------|

|----9----------------7-------------------2----------5---------7-------------|

|--7--------------5---------------------0----------3-------5-----------------|



|--------0---------------0------------0----------------------------------|

|----------0-------------0------------0----------------------------------|

|----------------------0------0-------0----------------------------------|

|------9-------------7---------0-----2----------------------------------|

|----9-------------7------------------2----------------------------------|

|--7----------5----------------------0-----------------------------------|



Verses: (Repeat throughout Verses.)

        (I have seen different tabs for this, but I believe the first sounds best.)

|----0------0-----------------0-----0-------------------0-----0-------------|

|----0------7-----------------0-----2-------------------0-----2-------------|

|----3------0------OR------5-----0------OR--------3-----0-------------|

|----0------0-----------------0-----0-------------------0-----0-------------|

|----2------5-----------------5-----2-------------------2-----2-------------|

|----3------7-----------------3--------------------------3--------------------|



Pre-Chorus: (Mute the second and hammer it going into the Chorus)

|---0-------0-------------------------------------------------------|

|---0-------0-------------------------------------------------------|

|---0-------0-------------------------------------------------------|

|---7-------5-------------------------------------------------------|

|---7-------5-------------------------------------------------------|

|---5-------3-------------------------------------------------------|



Chorus: 

         

|-----------------------------------------------------------------------------|

|-----------------------------------------------------------------------------|

|-----------------------------------------------------------------------------|

|---9-9-------7-------7-7-------4-4-------5--------5-5--------------|

|---9-9-------7-------7-7-------5-5-------5--------5-5--------------|

|---7-7-------5-------5-5-------2-2-------3--------3-3--------------|





Comments


Popular Tantric tabs & chords
Astounded Bass Tabs
Astounded Tabs
Down And Out Tabs
Frequency 1 Tabs
I'll Stay Here Tabs
Live Your Life Tabs
Mourning 1 Tabs
Mourning 2 Tabs
The Past Is The Past Tabs
Hero Ukulele


Song lyrics



↑ Back to top | Tablatures and chords are parodies/interpretations of the original songs. You may use it for private study, scholarship, research or language learning purposes only
© 2014 AZChords.com Contact us | Privacy policy | DMCA | Add/correct tabs | Request tabs | Top 50 tabs