» » »

Tantric, Mourning Tabs (ver.3)

Artists:  A B C D E F G H I J K L M N O P Q R S T U V W X Y Z # 

Mourning Tabs (ver.3)

Tantric Tabs
Rating:
0/5 (0 votes)
Mourning lessons Tabs too difficult? Try these video lessons and learn fast
                tuning: Drop-Db (Db, Ab, Db, Gb, Bb, Eb)





intro
|-------0-------------0------------0------------------0-------------|
|---------0---------0----------------0------------------------------|
|-----4---------4-------4---------------------------2---------------|
|---4-------------4-------4------4----------5-----2-----------------|
|-2-----------0----------------2----------5-----0-------------------|
|----------------------------2----------5---------------------------|


|-------0-------------0---------------------------------------------|
|---------0---------0--------0--------------------------------------|
|-----4---------4-------4----4--------------------------------------|
|---4-------------4-------4--4--------------------------------------|
|-2-----------0--------------2--------------------------------------|
|----------------------------2--------------------------------------|

verse
|-0----0------------------------------------------------------------|
|-x----x------------------------------------------------------------|
|-7----11-----------------------------------------------------------|
|-7----11-----------------------------------------------------------|
|-5----9------------------------------------------------------------|
|-5----9------------------------------------------------------------|


prechorus ("beauty thus become...")  play second chord a few times
open, then palm mute
|-0-----------------------------------------------------------------|
|-0-----------------------------------------------------------------|
|-6----7------------------------------------------------------------|
|-7----7------------------------------------------------------------|
|-7----5------------------------------------------------------------|
|-7----5------------------------------------------------------------|


chorus
|-------------------------------------------------------------------|
|-------------------------------------------------------------------|
|-------------------------------------------------------------------|
|-11-9-4-7----------------------------------------------------------|
|-9--7-2-5----------------------------------------------------------|
|-9--7-2-5----------------------------------------------------------|
            
Submit corrections

comments powered by Disqus
↑ Back to top | Tantric Tabs for Mourning. Lyrics for acoustic guitar and electric guitar. Tablatures and chords are parodies/interpretations of the original songs. You may use it for private study, scholarship, research or language learning purposes only