>
 >
Mourning

Mourning Guitar Tabs

Tantric - Mourning chords, tabs, tablatures, lyrics

Guitar lessons | Add/correct | Request | Top 50 tabs Artists:  A B C D E F G H I J K L M N O P Q R S T U V W X Y Z 0-9

Mourning Guitar Tabs – Tantric

CD, Sheet music, Poster

Do you like Mourning? Share with your friends now
Bass TabsChordsChords v2TabsTabs v2Tabs v3Tabs v4Ukulele
Tantric - mourning

Tuning:
Eb Ab Db F Bb Eb

acoustic 12 string
electric 6 string


 Intro:
e-------0---0-------------------0---------0-----0-
b---------0-0-------0-------------0---------------
f-----------0-----0---0---------------------------
d-----9-----7---7-------0-----2---------5---------
a---9-------7-7-------------2---------5-------7---
e-7---------5-------------0---------3-------5-----


e-------0---0-------------0-
b---------0-0-------0-----0-
f-----------0-----0---0---0-
d-----9-----7---7-------0-2-
a---9-------7-7-----------2-
e-7---------5-------------0-


Verse: the verse strums back and forth between
 these two chords. Just listen to the song to
 know how many times to play each chord. not that hard.
e--0------0---
b--0------0---
f--3------7---
d--0------0---
a--x------x---
e--3------7---


(1:04) still part of the verse. strum same as above.
e--0------0----
b--0------0----
f--7------3----
d--x------0----
a--7------x----
e--5------3----

lead in part to the chorus. electric gtr
e---------------------------------
b---------------------------------
f---------------------------------
d---------------------------------
a-5-5-5-5-5-5-5-5-5-5-5-5-5-5-5-5-
e-3-3-3-3-3-3-3-3-3-3-3-3-3-3-3-3-
 PM..............................

Chorus:
e-0-0-0-0-0-0-0-0-0-0-0-0-0-0-0-0-0-0-
b-0-0-0-0-0-0-0-0-0-0-0-0-0-0-0-0-0-0-
f-8-8-8-8-7-7-7-7-7-3-3-3-3-3-5-5-5-5-
d-9-9-9-9-x-x-x-x-x-4-4-4-4-4-x-x-x-x-
a-9-9-9-9-7-7-7-7-7-4-4-4-4-4-5-5-5-5-
e-7-7-7-7-5-5-5-5-5-2-2-2-2-2-3-3-3-3-


Bridge(played under solo)
e------------------------------------
b------------------------------------
f------------------------------------
d------------------------------------
a-9-9-x-7-7-7--2-2-2-2--5-5-5-5--7-7-
e-7-7-x-5-5-5--0-0-0-0--3-3-3-3--5-5-

Solo: w/slide
e-----19--------22~~22/------12~~--------------12~~-
b-/19-----19/22----------/12------------12-/12------
f---------------------------------10/12-------------
d---------------------------------------------------
a---------------------------------------------------
e---------------------------------------------------

e-----19--------22~~22/------12~~--------------12~~-
b-/19-----19/22----------/12------------12-/12------
f---------------------------------10/12-------------
d---------------------------------------------------
a---------------------------------------------------
e---------------------------------------------------

e---------------------------------------------------
b------12--/15--14~~~~~~--/10~~~~~~/12~~~~~/15~~~~~-
f-/12---------------------/10~~~~~~/12~~~~~/15~~~~~-
d---------------------------------------------------
a---------------------------------------------------
e---------------------------------------------------

e-------------------------------------------------------
b------12---/15--14~~~~~~-/10~~~~~~/12~~~~~/15~~-----12-
f-/12---------------------/10~~~~~~/12~~~~~/15~~-/12----
d-------------------------------------------------------
a-------------------------------------------------------
e-------------------------------------------------------

e-------------------------------------------------/12~-/19~-/22~-
b-/15--14~~~/10~~~/12~~~/15~~~-----12-/15--14~~~~-/12~-/19~-/22~-
f-----------/10~~~/12~~~/15~~~-/12-------------------------------
d----------------------------------------------------------------
a----------------------------------------------------------------
e----------------------------------------------------------------

end part:
e--------------------------
b--------------------------
f--------------------------
d--------------------------
a-2-2-2-2---5--5--5-5--7-7-
e-0-0-0-0---3--3--3-3--5-5-

trevor jones





Comments


Popular Tantric tabs & chords
Astounded Bass Tabs
Breakdown 2 Bass Tabs
Mourning Chords
Astounded 2 Tabs
Cliche' Tabs
Frequency2 Tabs
I Don't Care Tabs
Love Song Tabs
Revillusion Tabs
Hero Ukulele


Song lyrics



↑ Back to top | Tablatures and chords are parodies/interpretations of the original songs. You may use it for private study, scholarship, research or language learning purposes only
© 2014 AZChords.com Contact us | Privacy policy | DMCA | Add/correct tabs | Request tabs | Top 50 tabs