>
 >
Astounded 1

Astounded 1 Guitar Tabs

Tantric - Astounded 1 chords, tabs, tablatures, lyrics

Guitar lessons | Add/correct | Request | Top 50 tabs Artists:  A B C D E F G H I J K L M N O P Q R S T U V W X Y Z 0-9

Astounded 1 Guitar Tabs – Tantric

CD, Sheet music, Poster

Do you like Astounded 1? Share with your friends now
Bass TabsTabsTabs v2Tabs v3
Astounded-Tantric
Tantric

Drop Db:
Db Ab Db Gb Bb Eb

Riff A:

e-----------------------------------------------------------------
b---------------------------------------------------------------3-
g-------0---0-------0---0-------0-------------------------2p0-----
d-0h2---------0h2---------0h2-----------0---0-------0---0-----0---
a-----0-----------0-----------0-------3-----------3---------------
d---------------------------------0h3---------3h5-----------------

Verses: Riff A

Chorus:

A5        G5          F5       G5
Hey, hey, hey, I just found my way
A5              G5                        F5          G5
All you stu-pid fuck-ers walk a-round as-tound-ed and drow-ning
A5        G5          F5       G5
Hey, hey, hey, I just found my way
A5                 G5                         F5         G5
Some things can be lost, but now Iíve found a new way, a new way 
Riff A
again.....

Solo: 2 Gtrs

x2
e-----------------------------------------------------------------
b-----------------------------------------------------------------
g-7h8p7p5-7----7h8p7p5-7----7h8p7p5-7----7h8p7p5-7----7h8p7p5-7---
d-----------7------------7------------7------------7------------7-
a-----------------------------------------------------------------
d-----------------------------------------------------------------

e----12----------------12-----------------------------------------
b--13---13-12--------13---13-12-----------------------------------
g-------------12----------------12--------------5------------7brbr
d----------------12-10-------------12-10~-7p5-7----7p5-7-7p5------
a-----------------------------------------------------------------
d-----------------------------------------------------------------

e-3------3-------5------5------8------8------10-----10----12---12-
b-3------3-------5------5------8------8------10-----10----12---12-
g-----------------------------------------------------------------
d-----------------------------------------------------------------
a-----------------------------------------------------------------
d-----------------------------------------------------------------

e-----------------------------------------------------------------
b---5-8---5-8---5-8---5-8---5-8---5-8---5-8---5-8---5-8---5-8-5-8-
g-7-----7-----7-----7-----7-----7-----7-----7-----7-----7---------
d-----------------------------------------------------------------
a-----------------------------------------------------------------
d-----------------------------------------------------------------

e---5-5--5-5--5-5--5-5---5-5-5-7p5---8p5---7p5---8p5---7p5-7p5-8p6
b-8b---8b---8b---8b---8b-----------5-----5-----5-----5------------
g-----------------------------------------------------------------
d-----------------------------------------------------------------
a-----------------------------------------------------------------
d-----------------------------------------------------------------

e-12p8----12p8----12p8----12p8----12p8----8-15--12h15p12----------
b------10------10------10------10------10----------------13--12---
g-----------------------------------------------------------------
d-----------------------------------------------------------------
a-----------------------------------------------------------------
d-----------------------------------------------------------------

e-----------------------------------------------------------------
b-8---------------------------------------------------------------
g---9-------------------------------------------------------------
d-----10-9--------------------------------------------------------
a----------10-7-------------------------------------3-3-5-5-7-7---
d---------------10-9-7br--x-x--5-7~~-7--x-x-5-5-7-7---------------

e-----------------------------------------------------------------
b-----------------------------------------------------------------
g---------5-5---------5-5-----------------------------------------
d-5-5-7-7-----5-5-7-7---------------------------------------------
a-----------------------------------------------------------------
d-----------------------------------------------------------------

Outro:

e---------12----------------10------------------------------------
b-10h12-------------10h12-----------------------------------------
g-------9-----------------9---------------------0-------0-------0-
d-------------------------------------------2-------2-------2-----
a-----------------------------------------0---0---0---0---0---0---
d-----------------------------------------------------------------

thatís all

trevor jones





Comments


Popular Tantric tabs & chords
Breakdown 4 Bass Tabs
Something Better Chords
Astounded 2 Tabs
Chasing After Tabs
Cliche' Tabs
Desert Me Intro Tabs
Foresight Intro Tabs
Mourning 1 Tabs
Paranoid Tabs
Something Better Ukulele


Song lyrics



↑ Back to top | Tablatures and chords are parodies/interpretations of the original songs. You may use it for private study, scholarship, research or language learning purposes only
© 2014 AZChords.com Contact us | Privacy policy | DMCA | Add/correct tabs | Request tabs | Top 50 tabs