>
 >
Astounded

Astounded Guitar Tabs

Tantric - Astounded chords, tabs, tablatures, lyrics

Guitar lessons | Add/correct | Request | Top 50 tabs Artists:  A B C D E F G H I J K L M N O P Q R S T U V W X Y Z 0-9

Astounded Guitar Tabs – Tantric

CD, Sheet music, Poster

Do you like Astounded? Share with your friends now
Bass TabsTabsTabs v2Tabs v3
Tantric, Astounded.
  
Tantric - Astounded
Drop all strings a half step + drop D
Low To High - Db Ab Db Gb Bb Eb

Main Riff: (acoustic)
|--------------------------------------------------------------------|
|-------------------------------------------------------------3------|
|--------0--0-------0--0-------0------------------------2p0----------|
|--0h2--------0h2--------0h2-----------0--0-------0--0------0--------|
|------0----------0----------0-------3----------3--------------------|
|--------------------------------0h3--------3h5----------------------|

Chorus: (distorted electric)
|--------------------------------------------------------------------|
|--------------------------------------------------------------------|
|--------------------------------------------------------------------|
|--7---5---3---5-----------------------------------------------------|
|--7---5---3---5- repeat --------------------------------------------|
|--7---5---3---5-----------------------------------------------------|

Acoustic Solo: (repeat the first little riff a lot)
|---------------------10-14-10---------------------------------------------|
|------------------------------12------------------------------------------|
|--7h8p7-5-7----------------------12---------------------------------------|
|------------7-5/7-------------------12-10------------10--------12^-12^-12-|
|--------------------------------------------12-10-12-----12-10------------|
|--------------------------------------------------------------------------|

|--------------------------------------------------------------------|
|----10---10-10--13-13--15-15--17-17~--------------------------------|
|----12---9--9---12-12--14-14--17-17~--------------------------------|
|-12-----------------------------------------------------------------|
|--------------------------------------------------------------------|
|--------------------------------------------------------------------|

Electric Solo: (repeat the first little riff a lot, i put it in brackets)
|---------------------------------------------------------------------|
|-{-----------------}-------------------------------------------------|
|-{------12-------12}-12h14-14-12h14-14-12h14-14-12h14-14-12h14-14-14-|
|-{12h14----12h14---}-------------------------------------------------|
|---------------------------------------------------------------------|
|---------------------------------------------------------------------|

|---------------------------------------------------14p10----14p10----|
|---------------------------------------------------------12-------10-|
|--16p14----17p14----16p14----17p14----16p14-17p14--------------------|
|--------14-------14-------14-------14--------------------------------|
|---------------------------------------------------------------------|
|---------------------------------------------------------------------|

|-14p10-----14p10----14p10----10---17-14h17p14-------------------------|
|-------10--------10-------10------------------------------------------|
|----------------------------------------------17-16-12p9--------------|
|---------------------------------------------------------10p9---------|
|--------------------------------------------------------------10p7----|
|----------------------------------------------------------------------|

|--------------------------------------------------------------------|
|--------------------------------------------------------------------|
|----------------------------------5---------------------------------|
|------------------------------5-7-----------------------------------|
|--------x-x-----------3-5-7-----------------------------------------|
|-10p9p7-x-x-5-7----5-7----------------------------------------------|




 





Comments


Popular Tantric tabs & chords
Breakdown 4 Bass Tabs
Astounded 2 Tabs
Foresight Tabs
Frequency Tabs
I Don't Care Tabs
Inside Your Head Tabs
Just Once 1 Tabs
Live Your Life Tabs
The Past Is The Past Tabs
The Past Is The Past Intro Tabs


Song lyrics



↑ Back to top | Tablatures and chords are parodies/interpretations of the original songs. You may use it for private study, scholarship, research or language learning purposes only
© 2014 AZChords.com Contact us | Privacy policy | DMCA | Add/correct tabs | Request tabs | Top 50 tabs