>
 >
She's So High 1

She's So High 1 Guitar Tabs

Tal Bachman - She's So High 1 chords, tabs, tablatures, lyrics

Guitar lessons | Add/correct | Request | Top 50 tabs Artists:  A B C D E F G H I J K L M N O P Q R S T U V W X Y Z 0-9

She's So High 1 Guitar Tabs – Tal Bachman

CD, Sheet music, Poster

Do you like She's So High 1? Share with your friends now
ChordsChords v2TabsTabs v2Tabs v3
This song is fairly easy with a bit of practice.
I included some alternative choruses in case anyone isn't comfortable with the first one.
(They are all the same chords, just different variations)

Key:
B..........Bend String
b..........Bend Back
=..........Let Ring
v..........Vibrate String
pm.........Palm Mute


[INTRO]

GUITAR 1:

   E A B A E A B C#B A
e|---5-7-5---5-7-9-7-5-|
B|-5-------5-----------|
G|---------------------| x6 (Play this throughout the entire song) 
D|---------------------|    
A|---------------------|
E|---------------------|

GUITAR 2:

   A A A A F#F#F#F#E E E D D D D D
e|---------------------------------|
B|---------------------------------|
G|-2-2-2-2-2-2-2-2-2-2-2-2-2-2-2-2-| x6
D|---------4-4-4-4-2-2-2-0-0-0-0-0-|
A|---------------------------------|
E|---------------------------------|
 pm~~~~~~~~~~~~~~~~~~~~~~~~~~~~~~~~

   E E G#A G#D
e|-----------2=======-|
B|-----------3=======-|
G|-----1-2-1-2=======-|
D|---2========--------|
A|--------------------|
E|-0==========--------|


   A A A A F#F#F#F#E E E D D D D D
e|---------------------------------|
B|---------------------------------|
G|-2-2-2-2-2-2-2-2-2-2-2-2-2-2-2-2-|
D|---------4-4-4-4-2-2-2-0-0-0-0-0-|
A|---------------------------------|
E|---------------------------------|
 pm~~~~~~~~~~~~~~~~~~~~~~~~~~~~~~~~

   E E G#A G#D
e|-----------2=======-|
B|-----------3=======-|
G|-----1-2-1-2=======-|
D|---2========--------|
A|--------------------|
E|-0==========--------|

   A          E
e|-0-|     e|-0-|
B|-2-|     B|-0-|            I like to start off relatively quiet
G|-2-| x8  G|-1-| x16        and get progressively louder here, so
D|-2-|     D|-2-|            the chorus gets built up more.
A|-0-|     A|-2-|            Just a suggestion.
E|-x-|     E|-0-|



[CHORUS]

   B B B B B D D D D D A A A A A E E E E E 
e|-----------------------------------------|
B|-----------------------------------------|
G|-4-4-4-4-4-7-7-7-7-7-2-2-2-2-2-9-9-9-9-9-| X3
D|-4-4-4-4-4-7-7-7-7-7-2-2-2-2-2-9-9-9-9-9-|
A|-2-2-2-2-2-5-5-5-5-5-0-0-0-0-0-7-7-7-7-7-|
E|-----------------------------------------|

   B B B B B D D D D D 
e|---------------------|
B|---------------------|
G|-4-4-4-4-4-7-7======-|
D|-4-4-4-4-4-7-7======-|
A|-2-2-2-2-2-5-5======-|
E|---------------------|



[ALTERNATIVE CHORUS]

   B B B B B D D D D D A A A A A E E E E E
e|-----------------------------------------|
B|-----------------------------------------|
G|-4-4-4-4-4-7-7-7-7-7-----------9-9-9-9-9-| x3
D|-4-4-4-4-4-7-7-7-7-7-7-7-7-7-7-9-9-9-9-9-|
A|-2-2-2-2-2-5-5-5-5-5-7-7-7-7-7-7-7-7-7-7-|
E|---------------------5-5-5-5-5-----------|

   B B B B B D D D D D 
e|---------------------|
B|---------------------|
G|-4-4-4-4-4-7-7======-|
D|-4-4-4-4-4-7-7======-|
A|-2-2-2-2-2-5-5======-|
E|---------------------|



[ALTERNATIVE CHORUS 2]

   B B B B B D D D D D A A A A A E E E E E
e|-----------2-2-2-2-2---------------------|
B|-----------3-3-3-3-3-2-2-2-2-2-----------|
G|-4-4-4-4-4-2-2-2-2-2-2-2-2-2-2-1-1-1-1-1-| x3
D|-4-4-4-4-4-----------2-2-2-2-2-2-2-2-2-2-|
A|-2-2-2-2-2---------------------2-2-2-2-2-|
E|-----------------------------------------|

   B B B B B D D  
e|-----------2-2======-|
B|-----------3-3======-|
G|-4-4-4-4-4-2-2======-|
D|-4-4-4-4-4-----------|
A|-2-2-2-2-2-----------|
E|---------------------|



[VERSE]

   A A A A F#F#F#F#E E E D D D D D
e|---------------------------------|
B|---------------------------------|
G|-2-2-2-2-2-2-2-2-2-2-2-2-2-2-2-2-|
D|---------4-4-4-4-2-2-2-0-0-0-0-0-|
A|---------------------------------|
E|---------------------------------|
 pm~~~~~~~~~~~~~~~~~~~~~~~~~~~~~~~~

   A A A A F#F#F#F#E E E D D D D D
e|---------------------------------|
B|---------------------------------|
G|-2-2-2-2-2-2-2-2-2-2-2-2-2-2-2-2-| x4
D|---------4-4-4-4-2-2-2-0-0-0-0-0-|
A|---------------------------------|
E|---------------------------------|

   E E G#A G#D
e|-----------2=======-|
B|-----------3=======-|
G|-----1-2-1-2=======-|
D|---2========--------|
A|--------------------|
E|-0==========--------|

   A A A A F#F#F#F#E E E D D D D D
e|---------------------------------|
B|---------------------------------|
G|-2-2-2-2-2-2-2-2-2-2-2-2-2-2-2-2-|
D|---------4-4-4-4-2-2-2-0-0-0-0-0-|
A|---------------------------------|
E|---------------------------------|

   E E G#A G#D
e|-----------2=======-|
B|-----------3=======-|
G|-----1-2-1-2=======-|
D|---2========--------|
A|--------------------|
E|-0==========--------|

   A          E
e|-0-|     e|-0-|
B|-2-|     B|-0-|
G|-2-| x8  G|-1-| x16
D|-2-|     D|-2-|
A|-0-|     A|-2-|
E|-x-|     E|-0-|


[SOLO]

e|-------------------------------------------------------|
B|-17--17--------17--17--------17====----------------14v-|
G|-16B-16b-14----16B-16b-14----16B===-14-------14-16-----|
D|------------17------------16-----------15-17-----------|
A|-------------------------------------------------------|
E|-------------------------------------------------------|

e|------------------17B-17bv==-12-14-14B-14b-12---------|
B|----15B-15b-14-------------------------------12Bb-10v-|
G|-14------------14-------------------------------------|
D|------------------------------------------------------|
A|------------------------------------------------------|
E|------------------------------------------------------|



[OUTRO]

   E A B A E A B C#B A A
e|---5-7-5---5-7-9-7-5-0-|
B|-5-------5-----------2-|
G|---------------------2-|  
D|---------------------2-|    
A|---------------------0-|
E|---------------------X-|


Put it all together and that's all! Listen to the song a few times and you'll get the rhythm.





Comments


Popular Tal Bachman tabs & chords
Aeroplane 2 Chords
Darker Side Of Blue Chords
If You Sleep Chords
High Above Me Tabs
She's So High Tabs
She's So High 2 Tabs
Shes So High 3 Tabs
Shes So High 4 Tabs
Shes So High 5 Tabs
Aeroplace Ukulele


Song lyrics



↑ Back to top | Tablatures and chords are parodies/interpretations of the original songs. You may use it for private study, scholarship, research or language learning purposes only
© 2014 AZChords.com Contact us | Privacy policy | DMCA | Add/correct tabs | Request tabs | Top 50 tabs