» » »

Tal Bachman, She's So High Tabs (ver.1)

Artists:  A B C D E F G H I J K L M N O P Q R S T U V W X Y Z # 

She's So High Tabs (ver.1)

Tal Bachman Tabs
Rating:
0/5 (0 votes)
She's So High lessons Tabs too difficult? Try these video lessons and learn fast
                p=pull
b=bend
x=mute

Intro/Verse

guitar 1
-----5-7---7-------5---7---9-7-5--|
---5-----------5------------------|
----------------------------------|
-7--------------------------------|
----------------------------------|
----------------------------------|
guitar 2
----------------------------------|
----------------------------------|
----------------------------------|
-7-7-7-7-7-7-7-7-7-7-7-7-7-7-7-7--|
---------9-9-9-9-7-7-7-5-5-5-5-5--|
----------------------------------|

play 6 times

guitar 1
-----4-5-4-2--------------|
-5-5-------3--------------|
-----------2--------------|
--------------------------|
--------------------------|
--------------------------|

guitar 2
-----------2--------------|
-----------3--------------|
-----1-2-1-2--------------|
-2-2----------------------|
--------------------------|
--------------------------|

guitar 1
-----5-7---7-------5---7---9-7-5--|
---5-----------5------------------|
----------------------------------|
-7--------------------------------|
----------------------------------|
----------------------------------|
guitar 2
----------------------------------|
----------------------------------|
----------------------------------|
-7-7-7-7-7-7-7-7-7-7-7-7-7-7-7-7--|
---------9-9-9-9-7-7-7-5-5-5-5-5--|
----------------------------------|

guitar 1
-----4-5-4-2--------------|
-5-5-------3--------------|
-----------2--------------|
--------------------------|
--------------------------|
--------------------------|

guitar 2
-----------2--------------|
-----------3--------------|
-----1-2-1-2--------------|
-2-2----------------------|
--------------------------|
--------------------------|

guitar 1
--------------------------------------------------|
--------------------------------------------------|
-5-5-5-5-5-5-5-5-1-1-1-1-1-1-1-1-1-1-1-1-1-1-1-1--|
-5-5-5-5-5-5-5-5-2-2-2-2-2-2-2-2-2-2-2-2-2-2-2-2--|
-3-3-3-3-3-3-3-3-2-2-2-2-2-2-2-2-2-2-2-2-2-2-2-2--|
--------------------------------------------------|


Chorus
         Bm   D      A
She's so high,  high above me.
         E
She's so lovley.
         Bm   D      A
She's so high,  like Cleopatra,
         E                 Bm  D  A  E
Joan of Arc or Aphrodite.
         Bm   D
She's so high,  high above me.

Verse 2

guitar 1
-----5-7----7-------5---7----9-7-5--|
---5------------5-------------------|
------------------------------------|
-7----------------------------------|
------------------------------------|
------------------------------------|
guitar 2
-0---0---------------------2---2-----|
-2---2---------------------3---3-----|
-2---2----3---3--3--1--1---2---2-----|
-2---2----4---4--4--2--2---0---0-----|
-0---0----4---4--4--2--2-------------|
----------2---2--2-------------------|

play 4 times


guitar 1
-----------------2-|
-----------------3-|
-1--1--1--1---1--2-|
-2--2--2--2---2--0-|
-2--2--2--2---2----|
-------------------|

guitar 2
-----------------2-|
-----------------3-|
-------1--2---1--2-|
-2--2------------0-|
-------------------|
-------------------|

guitar 1
-----5-7----7-------5---7----9-7-5--|
---5------------5-------------------|
------------------------------------|
-7----------------------------------|
------------------------------------|
------------------------------------|
guitar 2
-0---0---------------------2---2-----|
-2---2---------------------3---3-----|
-2---2----3---3--3--1--1---2---2-----|
-2---2----4---4--4--2--2---0---0-----|
-0---0----4---4--4--2--2-------------|
----------2---2--2-------------------|

guitar 1
-----------------2-|
-----------------3-|
-1--1--1--1---1--2-|
-2--2--2--2---2--0-|
-2--2--2--2---2----|
-------------------|

guitar 2
-----------------2-|
-----------------3-|
-------1--2---1--2-|
-2--2------------0-|
-------------------|
-------------------|

guitar 1
--------------------------------------------------|
--------------------------------------------------|
-5-5-5-5-5-5-5-5-1-1-1-1-1-1-1-1-1-1-1-1-1-1-1-1--|
-5-5-5-5-5-5-5-5-2-2-2-2-2-2-2-2-2-2-2-2-2-2-2-2--|
-3-3-3-3-3-3-3-3-2-2-2-2-2-2-2-2-2-2-2-2-2-2-2-2--|
--------------------------------------------------|

Chorus
         Bm   D      A
She's so high,  high above me.
         E
She's so lovley.
         Bm   D      A
She's so high,  like Cleopatra,
         E                 Bm  D  A  E
Joan of Arc or Aphrodite.
         Bm   D
She's so high,  high above me.


Solo
--------------------------------------------------|
-12b13b12--10-------12b13b12--10------------------|
---------------12-----------------11--11----------|
--------------------------------------------------|
--------------------------------------------------|
--------------------------------------------------|

-----------------------------------------------------------------|
---------------------------------------------------------17------|
-12p12p10---------------10-----12----14------------14------------|
-----------10-----12---------------------------------------------|
-----------------------------------------------------------------|
-----------------------------------------------------------------|

---------------------17p12----------14----15----14----12----------------|
-15-----14p------------------------------------------------------12-----|
---------------14-------------------------------------------------------|
------------------------------------------------------------------------|
------------------------------------------------------------------------|
------------------------------------------------------------------------|


Verse 3

guitar 1
-----5-7---7-------5---7---9-7-5--|
---5-----------5------------------|
----------------------------------|
-7--------------------------------|
----------------------------------|
----------------------------------|
guitar 2
----------------------------------|
----------------------------------|
----------------------------------|
-7-7-7-7-7-7-7-7-7-7-7-7-7-7-7-7--|
---------9-9-9-9-7-7-7-5-5-5-5-5--|
----------------------------------|

play 4 times

guitar 1
-----4-5-4-2--------------|
-5-5-------3--------------|
-----------2--------------|
--------------------------|
--------------------------|
--------------------------|

guitar 2
-----------2--------------|
-----------3--------------|
-----1-2-1-2--------------|
-2-2----------------------|
--------------------------|
--------------------------|

guitar 1
-----5-7---7-------5---7---9-7-5--|
---5-----------5------------------|
----------------------------------|
-7--------------------------------|
----------------------------------|
----------------------------------|
guitar 2
----------------------------------|
----------------------------------|
----------------------------------|
-7-7-7-7-7-7-7-7-7-7-7-7-7-7-7-7--|
---------9-9-9-9-7-7-7-5-5-5-5-5--|
----------------------------------|

guitar 1
-----4-5-4-2--------------|
-5-5-------3--------------|
-----------2--------------|
--------------------------|
--------------------------|
--------------------------|

guitar 2
-----------2--------------|
-----------3--------------|
-----1-2-1-2--------------|
-2-2----------------------|
--------------------------|
--------------------------|

guitar 1
--------------------------------------------------|
--------------------------------------------------|
-5-5-5-5-5-5-5-5-1-1-1-1-1-1-1-1-1-1-1-1-1-1-1-1--|
-5-5-5-5-5-5-5-5-2-2-2-2-2-2-2-2-2-2-2-2-2-2-2-2--|
-3-3-3-3-3-3-3-3-2-2-2-2-2-2-2-2-2-2-2-2-2-2-2-2--|
--------------------------------------------------|

Chorus
         Bm   D      A
She's so high,  high above me.
         E
She's so lovley.
         Bm   D      A
She's so high,  like Cleopatra,
         E                 Bm  D  A  E
Joan of Arc or Aphrodite.
         Bm   D
She's so high,  high above me.

guitar 1
-----5-7---7-------5---7---9-7-5--5--|
---5-----------5------------------5--|
----------------------------------x--|
-7--------------------------------7--|
-------------------------------------|
-------------------------------------|
guitar 2
----------------------------------5--|
----------------------------------5--|
----------------------------------x--|
-7-7-7-7-7-7-7-7-7-7-7-7-7-7-7-7--7--|
---------9-9-9-9-7-7-7-5-5-5-5-5-----|
-------------------------------------|
            

comments powered by Disqus
↑ Back to top | Tal Bachman Tabs for She's So High. Lyrics for acoustic guitar and electric guitar. Tablatures and chords are parodies/interpretations of the original songs. You may use it for private study, scholarship, research or language learning purposes only