» » »

Your Own Disaster Tabs (ver.3)

Artists:  A B C D E F G H I J K L M N O P Q R S T U V W X Y Z # 

Your Own Disaster Tabs (ver.3)

Taking Back Sunday
Rating:
0/5 (0 votes)

Hard to play? Try these video lessons and learn fast.
                Your own disaster- Taking Back Sunday
Intro and Verse: (0:00) (0:57)
       Esus4     Esus4/C# (I like long names) 
----0-------------0----        
----0-------------0----           (repeat a whole lot)
----4-------------4----
----2-------------2----
----2-------------2----
0--0---------4---4---
Chorus A: (0:38) (1:28)
Esus4  B     A2
---0------0------0
---0------0------0
---4------4------2
---2------4------2
---2------2------0
---0-----(0)----(0)

Interlude + Chorus B: (2:03)
(pick bass note and then individual higher notes, then strum towards the end)
--0-----0-----0-----0
--0-----0-----0-----0
--4-----4-----4-----6
--2-----2-----4-----7
--2-----2-----2-----7
--0-----4----(0)----5

…. It’s that simple.
-if you don’t think it sounds right, tune your guitar, get the strumming pattern
                             -david
            
Hard to play? Try these video lessons and learn fast. | Correct




comments powered by Disqus
↑ Back to top | Tablatures and chords are parodies/interpretations of the original songs. You may use it for private study, scholarship, research or language learning purposes only