» » »

Blue Channel Tabs (ver.2)

Artists:  A B C D E F G H I J K L M N O P Q R S T U V W X Y Z # 

Blue Channel Tabs (ver.2)

Taking Back Sunday
Rating:
0/5 (0 votes)

Hard to play? Try these video lessons and learn fast.
                First of all, yes this is my first tab that I've submitted, although this isnt a very tough
song so it should be 99.9% accurate. I did leave out some stuff, such as the piano intro,
and the backup part the lead guitar is playing in the background. However, I do have some
of the piano part figured out, so maybe I'll add a tab for that later. Maybe. Anyways,
neither of those are vital parts in this song.
This song is, in my opinion, the best song on the album, and Taking Back Sunday rules.

CHORUS: (i didnt put in the number of times each power chord is played, since
anyone can figure that out)
E--------------------------------
B-------------------------------
G--------------------------------
D-12--10--8--7-8-7-8---------------
A-12--10--8--7-8-7-8--------------
E-10--8---6--5-6-5-6-------------
            PM______
VERSE:

E----------------------------------
B----------------------------------
G----------------------------------
D-12---14---10--7777777777777777---
A-12---14---10--7777777777777777---
E-10---12---8---5555555555555555---
                PM_______________

OUTRO:
(if any part of this tab is wrong, it'll probably be this. sorry if it is.)
E-----------------------------------------------------------------
B---------------------(same rhythm whole way through)-------------
G-----------------------------------------15----------------------
D-1212121212-1212121212-121212---14---15--15----------------------
A-1212121212-1212121212-121212---14---15--13---------------------
E-1010101010-1010101010-101010---12---13-----------------------
            
Hard to play? Try these video lessons and learn fast. | Correct




comments powered by Disqus
↑ Back to top | Tablatures and chords are parodies/interpretations of the original songs. You may use it for private study, scholarship, research or language learning purposes only