» » »

Taking Back Sunday, Set Phasers To Stun Tabs (ver.1)

Artists:  A B C D E F G H I J K L M N O P Q R S T U V W X Y Z # 

Set Phasers To Stun Tabs (ver.1)

Taking Back Sunday Tabs
 Rating:
4/5 (4 votes)
Set Phasers To Stun lessons Tabs too difficult? Try these video lessons and learn fast
                Guitar 1: Rhythm Guitar
Guitar 2: Lead Guitar

Legend:
^ = Half Step Bend
h = Hammer-On
p = Pull-Off


//Intro Part 1:
Guitar 1
E|-0-0-0-0-0-0-0-0-----------------0-0-0-0-0-0-0-0-----------------|
B|-0-0-0-0-0-0-0-0-4-4-4-4-4-4-4-4-0-0-0-0-0-0-0-0-4-4-4-4-4-4-4-4-|
G|-----------------4-4-4-4-4-4-4-4-----------------4-4-4-4-4-4-4-4-|
D|-----------------------------------------------------------------|
A|-----------------------------------------------------------------|
e|-----------------------------------------------------------------|

//Intro Part 2:
Guitar 1
E|-0-0-0-0-0-0-0-0-----------------0-0-0-0-0-0-0-0-----------------|
B|-0-0-0-0-0-0-0-0-4-4-4-4-4-4-4-4-0-0-0-0-0-0-0-0-4-4-4-4-4-4-4-4-|
G|-----------------4-4-4-4-4-4-4-4-----------------4-4-4-4-4-4-4-4-|
D|-----------------------------------------------------------------|
A|-----------------------------------------------------------------|
e|-----------------------------------------------------------------|

Guitar 2
E|----------------------------------------------------------------|
B|-----5---5^-----------5-5^-----------5---5^------------5-5^-----|
G|-------4-4^---------4---4^-------------4-4^----------4---4^-----|
D|-2-2------------2-2--------------2-2-------------2-2------------|
A|----------------------------------------------------------------|
e|----------------------------------------------------------------|

//Verse:
Guitar 1
E|-0-0-0-0-0-0-0-0-----------------0-0-0-0-0-0-0-0------------------|
B|-0-0-0-0-0-0-0-0-4-4-4-4-4-4-4-4-0-0-0-0-0-0-0-0-4-4-4-4-4-4-4-4--|
G|-----------------4-4-4-4-4-4-4-4-----------------4-4-4-4-4-4-4-4--| X2
D|------------------------------------------------------------------|
A|------------------------------------------------------------------|
e|------------------------------------------------------------------|

Guitar 2 - Palm Muted
E|------------------------------------------------------------------|
B|---555---555----------555---5555---555---555----------555---5555--|
G|------444---4444---444---444----------444---4444---444---444------|
D|-22--------------22--------------22--------------22---------------| X2
A|------------------------------------------------------------------|
e|------------------------------------------------------------------|

//Chorus:
Guitar 1
E|----------------------------------------------------------------|
B|----------------------------------------------------------------|
G|-22222222-44444444-66666666-99999999----------------------------|
D|-22222222-44444444-66666666-99999999----------------------------| X2
A|-00000000-22222222-44444444-77777777----------------------------|
e|----------------------------------------------------------------|

Guitar 2
E|-----0--------0--------0--------0-------------------------------|
B|---0---0----0---0----0---0----0---0-----------------------------|
G|----------------------------------------------------------------|
D|----------------------------------------------------------------| X2
A|-0--------2--------4--------7-----------------------------------|
e|----------------------------------------------------------------|

//Bridge:
Guitar 1
E|-0-0-0-0-0-0-0-0-----------------0-0-0-0-0-0-0-0-----------------|
B|-0-0-0-0-0-0-0-0-4-4-4-4-4-4-4-4-0-0-0-0-0-0-0-0-4-4-4-4-4-4-4-4-|
G|-----------------4-4-4-4-4-4-4-4-----------------4-4-4-4-4-4-4-4-|
D|-----------------------------------------------------------------|
A|-----------------------------------------------------------------|
e|-----------------------------------------------------------------|

Guitar 2
E|----------------------------------------------------------------|
B|-----5---5^-----------5-5^-----------5---5^------------5-5^-----|
G|-------4-4^---------4---4^-------------4-4^----------4---4^-----|
D|-2-2------------2-2--------------2-2-------------2-2------------|
A|----------------------------------------------------------------|
e|----------------------------------------------------------------|

//Verse:
Guitar 1
E|-0-0-0-0-0-0-0-0-----------------0-0-0-0-0-0-0-0------------------|
B|-0-0-0-0-0-0-0-0-4-4-4-4-4-4-4-4-0-0-0-0-0-0-0-0-4-4-4-4-4-4-4-4--|
G|-----------------4-4-4-4-4-4-4-4-----------------4-4-4-4-4-4-4-4--| X2
D|------------------------------------------------------------------|
A|------------------------------------------------------------------|
e|------------------------------------------------------------------|

Guitar 2 - Palm Muted
E|------------------------------------------------------------------|
B|---555---555----------555---5555---555---555----------555---5555--|
G|------444---4444---444---444----------444---4444---444---444------|
D|-22--------------22--------------22--------------22---------------| X2
A|------------------------------------------------------------------|
e|------------------------------------------------------------------|

//Chorus:
Guitar 1
E|----------------------------------------------------------------|
B|----------------------------------------------------------------|
G|-22222222-44444444-66666666-99999999----------------------------|
D|-22222222-44444444-66666666-99999999----------------------------| X4
A|-00000000-22222222-44444444-77777777----------------------------|
e|----------------------------------------------------------------|

Guitar 2
E|-----0--------0--------0--------0-------------------------------|
B|---0---0----0---0----0---0----0---0-----------------------------|
G|----------------------------------------------------------------|
D|----------------------------------------------------------------| X4
A|-0--------2--------4--------7-----------------------------------|
e|----------------------------------------------------------------|

//Solo:
Guitar 1
E|----------------------------------------------------------------|
B|----------------------------------------------------------------|
G|-666--666--666--666--666--666--666------------------------------|
D|-666--666--666--666--666--666--666------------------------------| X4
A|-444--444--444--444--444--444--444------------------------------|
e|----------------------------------------------------------------|

Guitar 2
E|---0-7---0-7-4h5p4---0-4-0-----4-0------------------------------|
B|-2-----2-----------2-------2-0----------------------------------|
G|----------------------------------------------------------------|
D|----------------------------------------------------------------| X4
A|----------------------------------------------------------------|
e|----------------------------------------------------------------|

//Interlude:
Guitar 1
E|--------------------------------------------------------------------------|
B|--------------------------------------------------------------------------|
G|-22222222-44444444-22222222-44444444-22222222-44444444-66666666-99999999--|
D|-22222222-44444444-22222222-44444444-22222222-44444444-66666666-99999999--| X2
A|-00000000-22222222-00000000-22222222-00000000-22222222-44444444-77777777--|
e|--------------------------------------------------------------------------|

Guitar 2
E|-----0--------0--------0--------0--------0--------0--------0--------0----|
B|---0---0----0---0----0---0----0---0----0---0----0---0----0---0----0---0--|
G|-------------------------------------------------------------------------|
D|-------------------------------------------------------------------------| X2
A|-0--------2--------0--------2--------0--------2--------4--------7--------|
e|-------------------------------------------------------------------------|

//Outro:
Guitar 1
E|-----------------------------------------------------------------|
B|-----------------------------------------------------------------|
G|-22-22-22-22-2-2---22-22-22-22-2-2---22-22-22-22-2-2---2222222---|(2)
D|-22-22-22-22-2-2---22-22-22-22-2-2---22-22-22-22-2-2---2222222---|(2)
A|-00-00-00-00-0-0---00-00-00-00-0-0---00-00-00-00-0-0---0000000---|(0)
e|-----------------------------------------------------------------|

Guitar 2
E|---0-7---0-7-4h5p4---0-4-0-----4-0-----0-7---0-7-4h5p4----------|
B|-2-----2-----------2-------2-0-------2-----2--------------------|
G|----------------------------------------------------------------|
D|----------------------------------------------------------------|
A|----------------------------------------------------------------|
e|----------------------------------------------------------------|
            
Submit corrections

comments powered by Disqus
↑ Back to top | Taking Back Sunday Tabs for Set Phasers To Stun. Lyrics for acoustic guitar and electric guitar. Tablatures and chords are parodies/interpretations of the original songs. You may use it for private study, scholarship, research or language learning purposes only