» » »

Cute Without The "E" Cut From The Bass tabs (ver.1)

Artists:  A B C D E F G H I J K L M N O P Q R S T U V W X Y Z # 

Cute Without The "E" Cut From The Bass tabs (ver.1)

Taking Back Sunday
Rating:
0/5 (0 votes)

Hard to play? Try these video lessons and learn fast.
                ************************************************
  Taking Back Sunday - Cute without the "E"
************************************************
cool song, not 100 percent rite, but this is how i play
standard tuning

INTRO x1
G|-----------------------------------------------------------------|
D|--------------------------2-1-2-1-----------------------2-1-2-1--|
A|-10/-444444-000000-222222----2---2-444444-000000-2222222---2---2-|
E|-----------------------------------------------------------------|
VERSE x1
G|-----------------------------------------------------------------|
D|----------------------2-1-2-1-----------------------2-1-2-1------|
A|-444444-000000-222222----2---2-444444-000000-2222222---2---2-----|
E|-----------------------------------------------------------------|

G|-----------------------------------------------------------------|
D|----------------------2-1-2-1------------------------------------|
A|-444444-000000-222222----2---2-444444-000000-222222222222222-4---|
E|-----------------------------------------------------------------|
CHORUS x4
G|----6---4-----------4--------------------------------------------|
D|------------2h4p2------------------------------------------------|
A|-444-222---------222---------------------------------------------|
E|---------000-----------------------------------------------------|
PRE-VERSE x1
G|-----------------------------------------------------------------|
D|----------------------2-1-2-1-----------------------2-1-2-1------|
A|-444444-000000-222222----2---2-444444-000000-2222222---2---2-----|
E|-----------------------------------------------------------------|
VERSE x1
G|-----------------------------------------------------------------|
D|----------------------2-1-2-1-----------------------2-1-2-1------|
A|-444444-000000-222222----2---2-444444-000000-2222222---2---2-----|
E|-----------------------------------------------------------------|

G|-----------------------------------------------------------------|
D|----------------------2-1-2-1------------------------------------|
A|-444444-000000-222222----2---2-444444-000000-222222222222222-4---|
E|-----------------------------------------------------------------|
CHORUS x4
G|----6---4-----------4--------------------------------------------|
D|------------2h4p2------------------------------------------------|
A|-444-222---------222---------------------------------------------|
E|---------000-----------------------------------------------------|
INTERLUDEx 7
G|----66---44------------44----------------------------------------|
D|---------------2h4p2---------------------------------------------|
A|-444--222-----------222------------------------------------------|
E|-----------0000--------------------------------------------------|
LAST TIME x1
G|----66---44------------------------------------------------------|
D|--------------2h4p2----------------------------------------------|
A|-444--222----------222-2~----------------------------------------|
E|-----------000---------------------------------------------------|
NEXT PART x1
G|--------------------------------------------------------------------|
D|---------2-1-2-1----------2-1-2-1----------2-1-2-1------------------|
A|-4~-0~-2~---2---2-4~-0~-2~---2---2-4~-0~-2~---2---2-4~-0~-22-2-2-2--|
E|--------------------------------------------------------------------|
PRE ENDING x1
G|-----------------------------------------------------------------|
D|-----------------------------------------------------------------|
A|-4~-0~-2~-4~-0~-2~-4~-0~-2~-4~-0~-22222222222222-----------------|
E|-----------------------------------------------------------------|
ENDING x6
G|------6----------------------------------------------------------|
D|-----------------------------------------------------------------|
A|-44444-000000-222222222222222222---------------------------------|
E|-----------------------------------------------------------------|
cont'd x1
G|-----------------------------------------------------------------|
D|-----------------------------------------------------------------|
A|-4~-0~-2~--------------------------------------------------------|
E|-----------------------------------------------------------------|
            
Hard to play? Try these video lessons and learn fast. | Correct




comments powered by Disqus
↑ Back to top | Tablatures and chords are parodies/interpretations of the original songs. You may use it for private study, scholarship, research or language learning purposes only