» » »

Taking Back Sunday, Cute Without The "E" Cut From The Tabs (ver.1)

Artists:  A B C D E F G H I J K L M N O P Q R S T U V W X Y Z # 

Cute Without The "E" Cut From The Tabs (ver.1)

Taking Back Sunday Tabs
 Rating:
4/5 (4 votes)
Cute Without The  Tabs too difficult? Try these video lessons and learn fast
1
                Taking Back Sunday 
Cute Without the “E” (Cut From the Team)
Standard Tuning

Intro x 2
e-------------------------------------------------
B-------------------------------------------------
G---4---4---4---4---------------------------------
D---2---2---4---1--------------------------------- 
A---4---0---2---2---------------------------------
E------------------------------------------------- 

Verse:
Rhythm x 6(Palm Muted) 
e-------------------------------------------------------------------------
B-------------------------------------------------------------------------
G---6-6-6-6-6-6-6-6--2-2-2-2-2-2-2-2--4-4-4-4-4-4-4-4--x-x-x-x-x-x-x-x---- 
D---6-6-6-6-6-6-6-6--2-2-2-2-2-2-2-2--4-4-4-4-4-4-4-4--1-1-1-1-1-1-1-1---- 
A---4-4-4-4-4-4-4-4--0-0-0-0-0-0-0-0--2-2-2-2-2-2-2-2--2-2-2-2-2-2-2-2---- 
E------------------------------------------------------x-x-x-x-x-x-x-x----

Lead x 6
E---------------------------------------------------------------- 
B---------------------------------------------------------------- 
G---4---4---4---------4---4---4---------4---4---4---------------- 
D---------------------------------------------------------------- 
A---------------------------------------------------------------- 
E---------------------------------------------------------------- 

Chorus 
Both Guitars x 4
e-------------------------------------------------------
B-------------------------------------------------------
G---6-6-6-6-----------9-9-9-9--------------------------- 
D---6-6-6-6--9-9-9-9--9-9-9-9--7-7-7-7------------------ 
A---4-4-4-4--9-9-9-9--7-7-7-7--7-7-7-7------------------
E------------7-7-7-7-----------5-5-5-5------------------

Verse x 6

Chorus x 6

Interlude:
Rhythm  x 8
e---------------------------------------
B---------------------------------------
G---6~--------------9~------------------
D---6~------9~------9~------7~----------
A---4~------9~------7~------7~----------
E-----------7~--------------5~----------

Lead x 6
E-----------4-----------------4---5---4h5p4------------------------
B-------5-----------------5----------------------------------------
G---4-----------------4--------------------------------------------
D------------------------------------------------------------------
A------------------------------------------------------------------
E------------------------------------------------------------------

Bridge 1:
“And all of this…….” x4 
e-----------------------------------------
B-----------------------------------------
G---6-------------------------------------
D---6---7---9-----------------------------
A---4---7---9---666666--------------------
E-------5---7---777777--------------------

Bridge 2:
“I stay wrecked and jealous for this…..”  x 6 
e---------------------------------------------------------
B---------------------------------------------------------
G---6-6-6-6-6-6-------------------------------------------
D---6-6-6-6-6-6--7-7-7-7-7-7--9-9-9-9-9-9-----------------
A---4-4-4-4-4-4--7-7-7-7-7-7--9-9-9-9-9-9--66666666-------
E----------------5-5-5-5-5-5--7-7-7-7-7-7--77777777-------

End on: 
e---------------
B---------------
G---6-----------
D---6---7---9~-- 
A---4---7---9~-- 
E-------5---7~--


I've kinda changed the rhythm part in the verse so that you dont really need a lead guitarist and it still sounds good.  Rate This!  Enjoi
            
Submit corrections

comments powered by Disqus
↑ Back to top | Taking Back Sunday Tabs for Cute Without The "E" Cut From The. Lyrics for acoustic guitar and electric guitar. 1 Tablatures and chords are parodies/interpretations of the original songs. You may use it for private study, scholarship, research or language learning purposes only