» » »

Takida, Never Alone Always Alone Tabs (ver.1)

Artists:  A B C D E F G H I J K L M N O P Q R S T U V W X Y Z # 

Never Alone Always Alone Tabs (ver.1)

Takida Tabs
Rating:
4/5 (2 votes)
Never Alone Always Alone lessons Tabs too difficult? Try these video lessons and learn fast
                Never Alone Always Alone – Takida ('The Darker Instinct' album version)

INFO:

For beginner pickers:
Skip the middle string

Example:  e|-------------|
          B|-------------|
          G|--0---2---3--|
          D|-------------|
          A|-------------|
          E|-3---3---3---|


For intermediate pickers: 

Pick E string and brush up G and D string as written in the full tab.


For serious pickers:
Pick every note individually 

Example:  e|-------------------|
          B|-------------------|
          G|--0---2---3---2---0|
          D|---0---0---0---0---|
          A|-------------------|
          E|-3---3---3---3---3-|


Update: A BIG THANK YOU TO BAASEN FOR HELPING OUT WITH MISSING NOTES.
 
^ = brush up
h = hammer on
p = pull off




     ^   ^         ^   ^   ^   ^         ^   ^        ^   ^   ^   ^
e|-------------|---------------------|------------|---------------------|
B|-------------|---------------------|------------|---------------------|
G|---0---2---3-|---0---2---3---2---0-|-------0---2|-------0---2---0-----|
D|---0---0-----|---0---0---0---0-----|---3---3----|---3---3---3---3---3-|
A|-------------|---------------------|---3--------|---3-----------------|
E|-3---3---3---|-3---3---3---3---3---|-1---1---1--|-1---1---1---1---1---|X3


     ^   ^            ^   ^
e|----------------|----------------|
B|----------------|----------------|
G|---0---0--------|---0---0---2----|
D|---0---0---4----|---0---0--------|
A|----------------|----------------|
E|-3---3----------|-3---3----------|


     ^   ^         ^   ^   ^   ^         ^   ^        ^   ^   ^   ^
e|-------------|---------------------|------------|---------------------|
B|-------------|---------------------|------------|---------------------|
G|---0---2---3-|---0---2---3---2---0-|-------0---2|-------0---2---0-----|
D|---0---0-----|---0---0---0---0-----|---3---3----|---3---3---3---3---3-|
A|-------------|---------------------|---3--------|---3-----------------|
E|-3---3---3---|-3---3---3---3---3---|-1---1---1--|-1---1---1---1---1---|X2


     ^   ^            ^   ^
e|----------------|----------------|
B|----------------|----------------|
G|---0---0--------|---0---0---2----|
D|---0---0---4----|---0---0--------|
A|----------------|----------------|
E|-3---3----------|-3---3----------|



Gm          A#                      
I am never alone 
               F
I’m failing to turn
                  D
I will never miss home

I wanna get back again
Gm          A#                  
I am never alone
               C 
My colors will burn
       Dm              Gm              
Never alone, always alone


     ^   ^         ^   ^   ^   ^         ^   ^        ^   ^   ^   ^
e|-------------|---------------------|------------|---------------------|
B|-------------|---------------------|------------|---------------------|
G|---0---2---3-|---0---2---3---2---0-|-------0---2|-------0---2---0-----|
D|---0---0-----|---0---0---0---0-----|---3---3----|---3---3---3---3---3-|
A|-------------|---------------------|---3--------|---3-----------------|
E|-3---3---3---|-3---3---3---3---3---|-1---1---1--|-1---1---1---1---1---|X3


     ^   ^            ^   ^
e|----------------|----------------|
B|----------------|----------------|
G|---0---0--------|---0---0---2----|
D|---0---0---4----|---0---0--------|
A|----------------|----------------|
E|-3---3----------|-3---3----------|



Gm          A#                       
I am never alone 
               F
I’m failing to turn
                  D
I will never miss home

I wanna get back again
Gm          A#                  
I am never alone
               C 
My colors will burn
      Dm              Gm             
Never alone, always alone

e|------------------------------------|
B|------------------------------------|
G|------------------------------------|
D|--3-5--1-3--0h1p0-------------------|
A|------------------3-5--1-3--0h1p0---|
E|---------------------------------1--|

F           D              Gm
I am never, I am always alone

e|------------------------------------|
B|------------------------------------|
G|------------------------------------|
D|--3-5--1-3--0h1p0-------------------|
A|------------------3-5--1-3--0h1p0---|
E|---------------------------------1--|

F                   Gm
I will never miss home


Solo: Gm | A# | F | D | Gm | A# | C | Dm | Gm |

     ^   ^         ^   ^   ^   ^         ^   ^        ^   ^   ^   ^
e|-------------|---------------------|------------|---------------------|
B|-------------|---------------------|------------|---------------------|
G|---0---2---3-|---0---2---3---2---0-|-------0---2|-------0---2---0-----|
D|---0---0-----|---0---0---0---0-----|---3---3----|---3---3---3---3---3-|
A|-------------|---------------------|---3--------|---3-----------------|
E|-3---3---3---|-3---3---3---3---3---|-1---1---1--|-1---1---1---1---1---|X2


     ^   ^         ^   ^   ^   ^         ^   ^        ^   ^   ^   ^
e|-------------|---------------------|------------|------------------------|
B|-------------|---------------------|------------|------------------------|
G|---0---2---3-|---0---2---3---2---0-|-------0---2|-------0---2---0--------|
D|---0---0-----|---0---0---0---0-----|---3---3----|---3---3---3---3---3---0|
A|-------------|---------------------|---3--------|---3--------------------|
E|-3---3---3---|-3---3---3---3---3---|-1---1---1--|-1---1---1---1---1------|
            

comments powered by Disqus
↑ Back to top | Takida Tabs for Never Alone Always Alone. Lyrics for acoustic guitar and electric guitar. Tablatures and chords are parodies/interpretations of the original songs. You may use it for private study, scholarship, research or language learning purposes only