» » »

Takida, Never Alone Always Alone Tabs (ver.3)

Artists:  A B C D E F G H I J K L M N O P Q R S T U V W X Y Z # 

Never Alone Always Alone Tabs (ver.3)

Takida Tabs
 Rating:
4/5 (5 votes)
Never Alone Always Alone lessons Tabs too difficult? Try these video lessons and learn fast
                
                       Hello!

                       This is the tab from Never Alone Always Alone!


                       Tuning: Drop D(Tune Low E To D)


 Okey, so I´m just gonna put out the different riffs and then
 you play as many times needed. :D


Verse:
e----------------------------------------|
B----------------------------------------|
G----------------------------------------|
D--5--7--8---5--7--8--7--5---------------|
A---5--5------5--5--5--5-----------------|
D-5--5--5---5--5--5--5--5----------------|


e----------------------------------------|
B----------------------------------------|
G----------------------------------------|
D--3--5--7------3--5--7--5--3------------|
A---3--3--3------3--3--3--3--------------|
D-3--3--3--3---3--3--3--3--3-------------|


e----------------------------------------|
B----------------------------------------|
G----------------------------------------|
D--5--5--4----5--5--4--------------------|
A---5--5-------5--5----------------------|
D-0--0--0----0--0--0---------------------|

Chourus:
e-------------------------------------------|
B-------------------------------------------|
G-------------------------------------------|
D-5-5-5-5-0-8-8-8-8-3-3-3-3-0-0-0-0-x-x-x-x-|
A-5-5-5-5-0-8-8-8-8-3-3-3-3-0-0-0-0-x-x-x-x-|
D-5-5-5-5-0-8-8-8-8-3-3-3-3-0-0-0-0-x-x-x-x-|


e-------------------------------------------|
B-------------------------------------------|
G-------------------------------------------|
D-5-5-5-5-0-8-8-8-8-10-10-10-10-12-----5----|
A-5-5-5-5-0-8-8-8-8-10-10-10-10-12-----5----|
D-5-5-5-5-0-8-8-8-8-10-10-10-10-12-----5----|


Mini Solo(Behind 2nd Verse)
e-------------------------------------------|
B-------------------------------------------|
G-------------------------------------------|
D-7-8~~~~10\7-8-7------10~~~----7-8-7-------|
A----------------8----------8-10-----8-10~~-|
D-----------------10~~~---------------------|


Bridge:
e----------------------------------------------|
B----------------------------------------------|
G----------------------------------------------|
D-12-12-12-12-5-5------5-5-----5-5-------------|
A-12-12-12-12-5-5-8-10-5-5-6-8-5-5-5-6---------|
D-12-12-12-12-5-5------5-5-----5-5-------------|


e-----------------------------------------------|
B-----------------------------------------------|
G-----------------------------------------------|
D-5-5-----5-----5-5-----3-3-3-3-0-0-0-0-x-x-x-x-|
A-5-5-3-5-5-1-3-5-5-0-1-3-3-3-3-0-0-0-0-x-x-x-x-|
D-5-5-----5-----5-5-----3-3-3-3-0-0-0-0-x-x-x-x-|


e----------------------------------------------|
B----------------------------------------------|
G----------------------------------------------|
D-5-5------5-5-----5-5-------------------------|
A-5-5-8-10-5-5-6-8-5-5-5-6---------------------|
D-5-5------5-5-----5-5-------------------------|


e----------------------------------------------|
B----------------------------------------------|
G----------------------------------------------|
D-5-5-----5-----5-5-----3-3-3-3-8--------------|
A-5-5-3-5-5-1-3-5-5-0-1-3-3-3-3-8--------------|
D-5-5-----5-----5-5-----3-3-3-3-8--------------|


Solo:Rythm Guitar
e-----------------------------------------------|
B-----------------------------------------------|
G-----------------------------------------------|
D-----------------------------------------------|
A-----------------------------------------------|
D-3-5-5-3-5-3-5---7-8-8-7-8-7-8---0-3-3-0-3-0-3-|


e-----------------------------------------------|
B-----------------------------------------------|
G-----------------------------------------------|
D-----------------------------------------------|
A-----------------------------------------------|
D-0-3-3-0-3-0-3---3-5-5-3-5-3-5---7-8-8-7-8-7-8-|


e----------------------------------------------|
B----------------------------------------------|
G----------------------------------------------|
D----------------------13-13-13-15-15-15-17----|
A----------------------13-13-13-15-15-15-17----|
D-10-12-12-10-12-10-12-13-13-13-15-15-15-17----|


Solo:Lead Guitar
e----------------------------------------------|
B-----------6--------4~3-4-3---15-13-----------|
G-------3-5-5^(7)-5-3---------------15-14------|
D------3---------------------------------15----|
A----------------------------------------------|
D-5-7-8----------------------------------------|


e----------------------------------------------|
B-15-13----------------------------13----------|
G------15-14----------10-12-12^(14)---12-10----|
D-----------15---10-12-------------------------|
A----------------------------------------------|
D----------------------------------------------|


e----------------------------------------------|
B--3-3-5---5-----------------------------------|
G--3-3-5-3-5-5^(7)8-7-8-7----------10-12~~-----|
D-5-5-5-5---------------------10-12------------|
A-----------------6-5-6-5---13-----------------|
D----------------------------------------------|


e----------------------------------------------|
B----------------------------------------------|
G-12-10----------------------------------------|
D------12-10-----------------------------------|
A-----------12---------------------------------|
D----------------------------------------------|


e----------------------------------------------|
B----------------------------------------------|
G----------------------------------------------|
D------------------10-12-13-10-12-13-----------|
A-10-12-13-10-12-13----------------------------|
D----------------------------------------------|


e-----------------------10-13-13^(15)-13-13-10-|
B------------------11-13-----------------------|
G-10-12-13-10-12-13----------------------------|
D----------------------------------------------|
A----------------------------------------------|
D----------------------------------------------|

Verse
Chorus
Verse
Chorus
Bridge
Solo
Verse
            
Submit corrections

comments powered by Disqus
↑ Back to top | Takida Tabs for Never Alone Always Alone. Lyrics for acoustic guitar and electric guitar. Tablatures and chords are parodies/interpretations of the original songs. You may use it for private study, scholarship, research or language learning purposes only