» » »

Takida, Jaded Tabs (ver.2)

Artists:  A B C D E F G H I J K L M N O P Q R S T U V W X Y Z # 

Jaded Tabs (ver.2)

Takida Tabs
 Rating:
4/5 (4 votes)
Jaded lessons Tabs too difficult? Try these video lessons and learn fast
1
                By Elis Bergquist 

I've seen other tabs for this song, and didn't quite get them. 
So I did a tab myself.

Takida
Jaded
Old



    F#     B      G#     E
e|------|------|------|------|
B|------|------|------|------|
G|------|--4---|------|------|
D|--4---|--4---|--6---|---2--|
A|--4---|--2---|--6---|---2--|
E|--2---|------|--4---|---0--|



No Chords, just vocals.

I was broken and alone
I wanna rest my bones
The sun is shining now but
still Im feeling cold

Intro: B  F# G# E F#

Intro tab:
e|-------------------------------------------------------------------------|
B|-------------------------------------------------------------------------|
G|-------------------------------------------------------------------------|
D|-------------------------------------------------------------------------|
A|--------------6-6-6-------------------1~2------6------------1-1-2-2-4-4-2|
E|----7-7-7-7-7--------7-7--6~7~6-2---2------4-----7-2-0----2--------------|

Vers:
B                F#
I was broken and alone
                G#
I wanna rest my bones

The sun is shining now but
E                 F#
still I´m feeling cold

B                   F#
I had a demon in my head
                   G#
I dont know what I said
                            E         F#
Im so sorry for the stories that I've told

First guitar Tab:
   G#                        E              F#
e|----------------------------------------------------------------------|
B|----------------------------------------------------------------------|
G|----------------------------------------------------------------------|
D|----------------------------------------------------------------------|x2
A|---------------------------------2~1~2---------1-2-2~4----------------|
E|-----4-4-6-4-4-7-4-4-6-4-4--------------------------------------------|

G#
Nothing is for real
E       F#
And you know it
G#
Im just gonna let it out
E       F#           B
Im just gonna let it out

B                            F#
Im having nightmares all the time
                   G#
For reasons I cant find

Its getting darker now
    E               F#
But I wont close my eye

(First guitar tab again)

G#
Nothing its for real
E       F#
And you know it, you know it
G#
Im just gonna let it out
E       F#           B
Im just gonna let it out
G#    E    B   F#
Oh yeeh

G#    E      B      F#
Since now Im gonna make it alone
G#    E      B      F#
Dont cry I wanna be on my own

E
Its brighter now
F#                   B
I will make it on my own

Solo: B   F#   G#   E  F#  x2

Solo tabs (vers.1):
e|---------------------------------------------------------------------------------|
B|---------------------------------------------------------------------------------|
G|---------------------------------------------------------------------------------|
D|---------------------------4-2-1-2-----------------------2-1---------------------|
A|--------6---------------------------------5-6---------------------1-1-2-2-4-4-2--|
E|----7-------7---6~7~6-2-------------4---4-------7--2--0--------2-----------------|

e|----------------------------------------------2-0----0---------------------|
B|------------------------------4-------------------4----4-2-2~4-2-0-0~2~0---|
G|--------4--3-4~6-4-3-4----3~4---4-3-4----3~4-------------------------------|
D|---------------------------------------------------------------------------|
A|---------------------------------------------------------------------------|
E|---------------------------------------------------------------------------|


Solo tabs (vers.2, bara olika lägen):
e|------------------------------------------------------------------------------|
B|------------------------------------------------------------------------------|
G|------------------------------------------------------------------------------|
D|--------1---------------4-2-1-2-----------------------2-1---------------------|
A|----2------2--1~2~1--------------------5-6---------------------1-1-2-2-4-4-2--|
E|--------------------2------------4---4-------7--2--0--------2-----------------|

e|---------------------------------------------------------------------------|
B|------------------------------4---------------7-5-4-5-4--2~4---------------|
G|--------4--3-4~6-4-3-4----3~4---4-3-4----3~4------------6----6--4-4~6~4----|
D|---------------------------------------------------------------------------|
A|---------------------------------------------------------------------------|
E|---------------------------------------------------------------------------|


Only Bass and Vocals

B                F#
I was broken and alone
                G#
I wanna rest my bones

The sun is shining now but
E                 F#
still I´m feeling cold


Guitar bass and vocals

G#    E      B      F#
Yeah...Oh yeah, oh yeah, oh yeah

G#    E      B      F#
Since now Im gonna make it alone
G#    E      B      F#
Dont cry I wanna be on my own

G#    E      B      F#
Since now Im gonna make it alone
G#    E      B      F#
Dont cry I wanna be on my own

E
Its brighter now
F#                   B
I will make it on my own

Good Luck!

(I might have done some small errors, but this sounds like Jaded to me)
            
Submit corrections

comments powered by Disqus
↑ Back to top | Takida Tabs for Jaded. Lyrics for acoustic guitar and electric guitar. 1 Tablatures and chords are parodies/interpretations of the original songs. You may use it for private study, scholarship, research or language learning purposes only