» » »

Handlake Village Tabs (ver.2)

Artists:  A B C D E F G H I J K L M N O P Q R S T U V W X Y Z # 

Handlake Village Tabs (ver.2)

Takida
Rating:
0/5 (0 votes)

Hard to play? Try these video lessons and learn fast.
                =======================================================
-----------------Plz rate and comment!-----------------
=======================================================

Requested by Otto

tAKiDA - Handlake Village


Send me an e-mail on english or swedish :)

/ = Slide   
... = Previously chord continues (i'm just too lazy to write it all down)

Intro and verse
e|----------------------------------------|
B|----------------------------------------|
G|----2-------2------5-----3-----2--------|
D|------3-------3------3-----3-----3------|
A|-5-------5------------------------------|
E|----------------------------------------|
                    X2

e|----------------------------------------|
B|-------------------1--------------------|
G|----2-------2-----------3-----2---------|
D|------3-------3------3-----3-----3------|
A|-1-------1------------------------------|
E|----------------------------------------|
                    X2

e|----------------------------------------|
B|----------------------------------------|
G|----2-------2------5/-------------------|
D|------3-------3-------------------------|
A|----------------------------------------|
E|--3-------3-----------------------------|


Clean guitar chorus
e|----------------------------------------------------|
B|---1---------1-----1----------5---------5-----5-----|
G|-----2---------2-----2----------5---------5-----5---|
D|-----------3-----3-----3--------------5-----5-----5-|
A|----------------------------3-----------------------|
E|-1--------------------------------------------------|

e|----------------------------------------------------|
B|---3---------3-----3--------------5-----------------|
G|-----3---------3-----3------------7---5-------------|
D|-----------3-----3-----3--------7-----5-------------|
A|-1--------------------------/5--------3-------------|
E|----------------------------------------------------|


Rythm guitar chorus 
e|----------------------------------------|
B|--------5...---3...---7-7-7---5---------|
G|-3...---5...---3...---7-7-7---5---------|
D|-3...---3...---1...---5-5-5---3---------|
A|-1...-----------------------------------|
E|----------------------------------------|



Rythm guitar bridge
e|----------------------------------------------------------------------|
B|----------------------------------------------------------------------|
G|-7...--3...--5...---7...--------5...---7...--3...--5...--2...--3...---|
D|-7...--3...--5...---7...--3...--3...---7...--3...--5...--2...--3...---|
A|-5...--1...--3...---5...--3...--3...---5...--1...--3...--0...--1...---|
E|--------------------------1...----------------------------------------|

Rythm guitar (while solo)
e|----------------------------------------|
B|----------------------------------------|
G|--5...--7...--3...--------5...----------|
D|--5...--7...--3...--3...--5...-3--------|
A|--3...--5...--1...--3...--3...-3--------|
E|--------------------1...-------1--------|

Solo... Haven't gotten to it yet. It's on my to do list.
e|------------------|
B|------------------|
G|------------------|
D|------------------|
A|------------------|
E|------------------|


Clean guitar (chorus without rythm guitar)
e|----------------------------------------------------|
B|---1---------1-----1----------5---------5-----5-----|
G|-----2---------2-----2----------5---------5-----5---|
D|-----------3-----3-----3--------------5-----5-----5-|
A|----------------------------3-----------------------|
E|-1--------------------------------------------------|

e|----------------------------------------------------|
B|---3---------3-----3--------------5-----------------|
G|-----3---------3-----3------------7---5-------------|
D|-----------3-----3-----3--------7-----5-------------|
A|-1--------------------------/5--------3-------------|
E|----------------------------------------------------|

outro, like intro but ends with.
e|--------1---------|
B|------3-----------|
G|----2-------------|
D|--0---------------|
A|------------------|
E|------------------|


=======================================================
-----------------Plz rate and comment!-----------------
=======================================================
            
Hard to play? Try these video lessons and learn fast. | Correct




comments powered by Disqus
↑ Back to top | Tablatures and chords are parodies/interpretations of the original songs. You may use it for private study, scholarship, research or language learning purposes only