» » »

As You Die Tabs (ver.1)

Artists:  A B C D E F G H I J K L M N O P Q R S T U V W X Y Z # 

As You Die Tabs (ver.1)

Takida
Rating:
4/5 (2 votes)

Tabs too difficult? Try these video lessons and learn fast.
                -----------------Plz rate and comment!-----------------

tAKiDA - As You Die


(lame email i know) 

Intro
e|--------------------------------------------------------------------------|
B|--7-----7-----7-----7-----8-----8-----8-----8-----------------------------|
G|-----7-----7-----7-----7-----7-----7-----7------7-------------------------|
D|--------------------------------------------------------------------------|
A|--------------------------------------------------------------------------|
E|--------------------------------------------------------------------------|
  x2

e|--------------------------------------------------------------------------|
B|--7-----7-----7-----7-----10----10----10-----10---------------------------|
G|-----7-----7-----7-----7-----9-----9-----9------9-------------------------|
D|--------------------------------------------------------------------------|
A|--------------------------------------------------------------------------|
E|--------------------------------------------------------------------------|

Rythm guitar chords  Verse
e|-----------------------------------------------------|
B|-----------------------------------------------------|
G|--4-4-4-----------------4-4-4------------------------|
D|--4-4-4------5-5-5------4-4-2------7-7-7-------------|
A|--2-2-2------5-5-5------2-2-2------7-7-7-------------|
E|-------------3-3-3-----------------5-5-5-------------|


e|--------------------------------------------------------------------------|
B|--------------------------------------------------------------------------|
G|---11--9--7/4-----11--9--7/9-----11--9--7/9--11/9-------------------------|
D|--------------------------------------------------------------------------|
A|--------------------------------------------------------------------------|
E|--------------------------------------------------------------------------|
  x2        Will return later...

Verse
e|---------------------------------------------------------|--------|
B|-------0---------0--------0----------0-------------------|--------|
G|---------------------------------------------------------|--------|
D|----4---------4--------4----------4----------------------|------5-|
A|--2------------------2-----------------------------------|----5---|
E|------------3------------------5-------------------------|--3-----|
  x3                                                        Last time.



Rythm guitar chords Chorus 
e|-------------------------------------------|
B|-------------------------------------------|
G|---7...---4...-----------------------------|
D|---7...---4...---7...---5...---------------|
A|---5...---2...---7...---5...---------------|
E|-----------------5...---3...---------------|
    ... = continues but i'm too lazy to write it all down^^

Big fan of tAKiDA and i will try to post some more tabs in the future, any 
suggestions just send me an email.
            
Tabs too difficult? Try these video lessons and learn fast.


comments powered by Disqus
↑ Back to top | Tablatures and chords are parodies/interpretations of the original songs. You may use it for private study, scholarship, research or language learning purposes only