» » »

Take That, Patience Tabs (ver.2)

Artists:  A B C D E F G H I J K L M N O P Q R S T U V W X Y Z # 

Patience Tabs (ver.2)

Take That Tabs
 Rating:
4/5 (25 votes)
Patience lessons Tabs too difficult? Try these video lessons and learn fast
1
                IMPORTANT: CAPO ON 3RD FRET 

Intro:

e|---------------------------------------------------------------|
B|---------------3-------3-------3-------------------------------|
G|-------0---------0-------0---2---2-----------------------------|
D|-------------0-------2-----0-----------------------------------|
A|-----2-------------3-------------------------------------------|
E|---0-----2-3---------------------------------------------------|

verse 1:

this is the riff fro all of the verses

e|---------------------------------------------------------------|
B|---------------3-------3-------3-------------------------------|
G|-------0---------0-------0---2---2-----------------------------|
D|-------------0-------2-----0-----------------------------------|X4
A|-----2-------------3-------------------------------------------|
E|---0-----2-3---------------------------------------------------|


Just have a little  patience
Still hurting from a love I lost,
I’m feeling your frustration,
but in any minute all the pain will stop,

PRE CHORUS:

       Cadd9      G                         Cadd9
just hold me close inside your arms tonight, 
                   A
don’t be to hard on my emotions.

CHORUS:

      em  Cadd9 G  D       em     Cadd9  G  D
Cause I,              need time,
         em      Cadd9   
My heart is numb has no feeling
   G              D
So while I’m still healing
      em  Cadd9 G  D            em     G       C   D
Just try,            and have a little patience

VERSE:

Verse:
I really wanna start over again
I know you wanna be my salvation
The one that I can always depend

Pre-Chorus
I’ll try to be strong, believe me I’m trying to move on
Its complicated but understand me,

Chrous:
Cause I, need time,
My heart is numb has no feeling
So while I’m still healing
                     C         G
Just try, and have a little patience yeah
       C         G
Have a little patience yeah.
          C            h
Cause the scars run so deep,
         a          G               D
its been hard but I have to believe
       em        G     C    D
have a little patience
       em        G     C    D
have a little patience

Woohoo

Chorus:
Cause I, I just need time,
My heart is numb has no feeling
So while I’m still healing
Just try, and have a little patience
Have a little patience

My heart is numb has no feeling
So while I’m still healing
Just try, and have a little patience
            
Submit corrections

comments powered by Disqus
↑ Back to top | Take That Tabs for Patience. Lyrics for acoustic guitar and electric guitar. 1 Tablatures and chords are parodies/interpretations of the original songs. You may use it for private study, scholarship, research or language learning purposes only