» » »

Take That, Patience Bass tabs (ver.1)

Artists:  A B C D E F G H I J K L M N O P Q R S T U V W X Y Z # 

Patience Bass tabs (ver.1)

Take That Tabs
 Rating:
4/5 (5 votes)
Patience lessons Tabs too difficult? Try these video lessons and learn fast
1
                
Tuning: standard

intro (guitar on its on) come in with singing

verse 1

G|---------------------------------------------------------------------------|
D|--------------------------------------3------------------------------------|
A|------------------------6---6----------------------------------------------|
E|------3------5---6---------------------------------------------------------|x4

pre-chorus

G|---------------------------------------------------------------------------|
D|---------------------------------------------------------------------------|
A|--6-6-6-6-6-6-6-6-----------------6-6-6-6-6-6-6-6--3-3-3-3-3-3-3-3---------|
E|------------------6-6-6-6-6-6-6-6------------------------------------------| x1

chorus

G|---------------------------------------------------------------------------|
D|--------------------------------------3--3--3--3---------------------------|
A|--------------6--6--6--6---------------------------------------------------|
E|--3--3--3--3--------------6--6--6--6---------------------------------------| x4


verse 

pre chorus 

chorus 


bridge

G|---------------------------------------------------------------------------|
D|---------------------------------------------------------------------------|
A|--------------6--6-------------------------------6--6----------------------|
E|--3--3--3--3--------6-6-6-6-6-6-6-6---3--3--3--3-------6-6-6-6-6-6-6-6-----|

G|---------------------------------------------------------------------------|
D|-------------------------------------------------3--3--3--3--3--3--3--3----|
A|--6--6--6--6--5--5--5--5--6--6--6--6--3--3--3--3---------------------------|
E|---------------------------------------------------------------------------|

intro riff (no bass)

chorus x 2

outro

G|---------------------------------------------------------------------------|
D|---------------------------------------------------------------------------|
A|---------------------------------------------------------------------------|
E|----3~~~  (let ring)   ----------------------------------------------------|



| /  slide up
| \  slide down
| h  hammer-on
| p  pull-off
| ~  vibrato
| +  harmonic
| x  Mute note
===============================================================================
            
Submit corrections

comments powered by Disqus
↑ Back to top | Take That Bass for Patience. Lyrics for acoustic guitar and electric guitar. 1 Tablatures and chords are parodies/interpretations of the original songs. You may use it for private study, scholarship, research or language learning purposes only