» » »

Ever Since The World Began Tabs (ver.2)

Artists:  A B C D E F G H I J K L M N O P Q R S T U V W X Y Z # 

Ever Since The World Began Tabs (ver.2)

Survivor
Rating:
5/5 (2 votes)

Tabs too difficult? Try these video lessons and learn fast.
                
tuning: standard EADGBE

this tab is for the people who love this song. I'm not fond of writing tabs but I
love this song so
I tried to do it with my own hands. I've never seen an "accurate" tab of this song, hope 
like it….
This song is for my dreamgirl, MS. JOANAH LYN MOYA…I love you forever.

not 100%, but it sounds like the real thing…
if there's something wrong, just try to fix it..by this pattern it would be very easy.


INTRO:
   A
=--5------------------------------5-4----------------------------|
=--5-----5---------7-77-7/5-5--5-5----5-5/7-5--------------------|
=--6---6---7-6-7-(6)--------------------------4/6-4--------------|
=--7------------------------------------------------6/7----------|
=--7-------------------------------------------------------------|
=--5-------------------------------------------------------------|


=------------------------------------------|
=-------7-7--5-5-------5-5-----------------|
=--6-6------------7-7-------7-7--6-4-4////-|
=------------------------------------------|
=------------------------------------------|
=------------------------------------------|

stanza:

A-Bm-E-A  (switch to another chord at the end/start of each line of the song)
A-Bm-E-E
A-Bm-E-A (2x)
A-----

chorus:
A---------| (each line here are the chords for every line of the song)
Bm--------|
E---------|
C#m-----A-|

A--------------|
Bm---C#m---Bm--|
Bm---C#m---Bm--|

then,

Ever since the world---------------(I'm not sure about this but it sounds nice to me)
   Bm             E-
=----------2-----------------0------------------------------|
=--------3---3----------- -0---0----------------------------|
=----- 4-------4---------1------1---------------------------|
=---(4)---------------(2)---------2-------------------------|
=-2-----------------2---------------------------------------|
=-----------------0-----------------------------------------|
 began....
=---------5----9-7-5---(5)- (5)-|
=-------5---5-------------(5)---|
=-----0-------------------------|
=--(0)--------------------------|
=-------------------------------|
=-------------------------------|
at the end of the 1st chorus this downward picking stops..just listen for the timing.

bridge:

A-----------C#m------------Bm---------------A (E) 4x


------------------END----------------

"TO GIVE YOUR BEST..RECALL A TIME IN YOUR LIFE WHEN YOU LOST
YOUR EQUILIBRIUM AND FELT SEVERELY DEPRESSED. DID YOU CALL
OUT TO JESUS, WHO ALWAYS HELPS YOU TO CARRY YOUR
CROSS???'' ++++
            
Tabs too difficult? Try these video lessons and learn fast.




comments powered by Disqus
↑ Back to top | Tablatures and chords are parodies/interpretations of the original songs. You may use it for private study, scholarship, research or language learning purposes only