» » »

Survivor, Ever Since The World Began Tabs (ver.1)

Artists:  A B C D E F G H I J K L M N O P Q R S T U V W X Y Z # 

Ever Since The World Began Tabs (ver.1)

Survivor Tabs
Rating:
0/5 (0 votes)
Ever Since The World Began lessons Tabs too difficult? Try these video lessons and learn fast
                (Intro)
Ever since the world Began
introduction


Simplied by : dk_lim




 
note: the letter above was the duration or timing each note.



     E  E  E  E  E  E  E  E     E  E  E  E  E  E  E  E   
E||--------------------------|-----------0--------------|
B||--------------0--3--1--0--|--1-----------------------|
G||--------------------------|-----0--2-----0--2--0--2--|
D||--------5-----------------|--------------------------|
A||-----5-----5--------------|--------------------------|
E||--3-----------------------|--------------------------|


     E  E  E  E  E  E  E  E     Q    E  S Q    S E  S S  
E||-----------------3--2-----|--0-----------------------|
B||-----------3--3--------3--|-------3------------------|
G||--2--0--2-----------------|----------2-4----0-2--4-2-|
D||--------------------------|--------------------------|
A||--------------------------|--------------------------|
E||--2-----------------------|--------------------------|

     Q.     E  E  E  E  E     Q    E  Q    E  E  E   
E||--0------------0--0-----|------------------------|
B||--------0--0--------3---|--3----1--1----3--1--0--|
G||------------------------|------------------------|
D||------------------------|------------------------|
A||------------------------|--0---------------------|
E||--3---------------------|------------------------|


     Q    E  Q.     Q       W                       
E||-----------------3----|--2----------------|
B||--0-------------------|-------------------|
G||-------2--2-----------|-------------------|
D||-----------------2----|--0----------------|
A||----------------------|-------------------|
E||--2-------------------|-------------------|




Duration Legend
---------------
W - whole
H - half
Q - quarter
E - 8th
S - 16th
T - 32nd
X - 64th
. - note dotted
|-n-|  - n-tuplets
            
Submit corrections

comments powered by Disqus
↑ Back to top | Survivor Tabs for Ever Since The World Began. Lyrics for acoustic guitar and electric guitar. Tablatures and chords are parodies/interpretations of the original songs. You may use it for private study, scholarship, research or language learning purposes only