» » »

Supremes, Stop In The Name Of Love Bass tabs (ver.1)

Artists:  A B C D E F G H I J K L M N O P Q R S T U V W X Y Z # 

Stop In The Name Of Love Bass tabs (ver.1)

Supremes Tabs
 Rating:
4/5 (4 votes)
Stop In The Name Of Love lessons Tabs too difficult? Try these video lessons and learn fast
                Stop In The Name Of Love
Original Artists: The Supremes
Original Bassist: James Jamerson (With The Funk Brothers)

Everything played as he liked it - below the 5th fret and open
strings where possible.
Note the ending of the verse is not the same as ending of chorus,
pause on the first 'C'


Intro:
G------------------------------------------------------------------|
D--------------------------------------------------------22--33----|
A--0----0-1--2-22-------------------------3-3-3-3-3---33-----------|
E-----------------1-1----1-1--2---3-33---3-------------------------|

G--------------------------|
D--------------------------|
A--3-3-3-3-3---33-00-------|
E---------------------33---|

Verses 1 (& 2):
G--------------------------------------------------------------------|
D--------------------------------------------------------------------|
A--3-----3-----3-33----------1----0-00-------------------------------|
E-------------3------1-2-3-----4--------1-0-1---1--2--3--33---3-2-1--|

                                                    .
G----------------------------------------------------------------|
D----------------------------------------------------------------|
A---------------23-33---2-22-----------3----------2-3-----3-3-3--|
E--1--2--3---3----------------00-1---11----1-11------------------|

              .
G---------------------------------------|
D-----22--33----------------------------|
A--33---------3-----3-3-3---33-00-------|
E----------------------------------33---|

Chorus:
G------------------------------------------------------------------|
D------------------------------------------------------------------|
A--0----0-1--2-22----------------------------0---0-1-2---2---------|
E-----------------3-0-1----1--2--3---33---3-4--------------3-2-1---|

G-----------------------------------------------------------------|
D--------------------------------22--33---------------------------|
A-----------------3-3-3-3-3---33----------3-3-3-3-3---33-00-------|
E---1-2-3---33---3-------------------------------------------33---|

Verse 3:
G------------------------------------------------------------------|
D------------------------------------------------------------------|
A---3----3----3---33----------1----0--0----------------------------|
E--------------------1-2-3-----4--------0-1---1--2--3--33---3---1--|

G-----------------------|
D-----------------------|
A-----------------------|
E---1--2--3---3---3-4---|

Repeat Chorus to Fade:
            
Submit corrections

comments powered by Disqus
↑ Back to top | Supremes Bass for Stop In The Name Of Love. Lyrics for acoustic guitar and electric guitar. Tablatures and chords are parodies/interpretations of the original songs. You may use it for private study, scholarship, research or language learning purposes only