» » »

Supremes, You Can't Hurry Love Bass tabs (ver.1)

Artists:  A B C D E F G H I J K L M N O P Q R S T U V W X Y Z # 

You Can't Hurry Love Bass tabs (ver.1)

Supremes Tabs
Rating:
0/5 (0 votes)
You Can't Hurry Love lessons Tabs too difficult? Try these video lessons and learn fast
                G|--------------------|-----------------------|---------|------------|
D|--------------------|-----------------------|---------|------------|
A|--1-1-1--1-1--1-1--1|--1-1-1--1-1--1-1---1--|---o/o---|------------|
E|--------------------|------------------1---1|---o/o---|------------|


G|----REST----|--o/o--|-- o/o--|--o/o--|--o/o--|--o/o--|--o/o--|-----------|
D|-----"------|--o/o--|-- o/o--|--o/o--|--o/o--|--o/o--|--o/o--|-----------|
A|-----"------|--o/o--|-- o/o--|--o/o--|--o/o--|--o/o--|--o/o--|---------0-|
E|-----"------|--o/o--|-- o/o--|--o/o--|--o/o--|--o/o--|--o/o--|---1-1-3---|


G||:-------------|------------------|----------------|----------------------|
D||:-------------|----------0-1--1--|----------------|-0--0---------------0-|
A||:-1--1--1---1-|-1--1-1--1--------|1---1--1--1-1-1-|3---------------------|
E||:-------------|------------------|----------------|------3---3--3-3--3---|

		    |1st TIME        |2nd TIME
G|------------------|--------------:||----------------|
D|---0-1--1--1---3--|3--3----------:||-3-3--3-3--3-1--|
A|------------------|----------0---:||----------------|
E|--3---------------|-----1--3-----:||----------------|


G|--------------------------|--------------------------|
D|--------------------------|------------------------4-|
A|5--5--5---5--5--5-5---5---|-5--5--5---5--5-5-5---5---|
E|--------------------5---5-|--------------------5-----|

G|-------------------------|-----------------------|---------------------------|
D|5--5--5---5--5---5---5---|-5--5--5---5--5---5--5-|--1--1--1---1--1--1-1--1---|
A|---------------5---5---5-|----------------5------|---------------------1---1-|
E|-------------------------|-----------------------|---------------------------|


G|------------------------|--------------------------|--------------------------|
D|1--1--1---1--1----1---1-|-3--3--3---3--3----3-----3|------------3-------------|
A|----------------1---1---|-----------------3---3-3--|----------3----3--------0-|
E|------------------------|--------------------------|-1--1--1---------1-1-3----|

NOTES:
||: measure :|| = repeat measures
o/o 	        = repeat previous measure
            

comments powered by Disqus
↑ Back to top | Supremes Bass for You Can't Hurry Love. Lyrics for acoustic guitar and electric guitar. Tablatures and chords are parodies/interpretations of the original songs. You may use it for private study, scholarship, research or language learning purposes only