» » »

Supremes, Love Child Bass tabs (ver.1)

Artists:  A B C D E F G H I J K L M N O P Q R S T U V W X Y Z # 

Love Child Bass tabs (ver.1)

Supremes Tabs
 Rating:
4/5 (4 votes)
Love Child lessons Tabs too difficult? Try these video lessons and learn fast
                Written by P.Sayer/R.Dean Taylor/F.Wilson/D.Richards
Original Artists: Diana Ross & The Supremes
Released in 1968
Bassist: James Jamerson
Not 100% on Mr Jamersons bassline in this song but it does fit
Have fun!

Intro: (play this x4)
G----------------|
D---777-77---5---|
A---------5-7----|
E----------------|

Verse:
G-----------------------------------------------------------------|
D---777-77---666-66---555-55---444-44---333-33---222-22-----------|
A-------------------------------------------------------------0---|
E-------------------------------------------------------0-2-4-----|

G---------------4----------------------------------------------------|
D--------------4--------------0-2-----------------3-3-3---2-2-2-22---|
A---2-2-2--22-2----3-3-3--33-3-----0-0-0--00-0-00--------------------|
E--------------------------------------------------------------------|

Chorus:
G------------------------------------------------------------|
D--------------------------------------------------------5---|
A-----------------------------------8-8-88-8---7-7-77-7------|
E---0-5-5-0-55-0-5---3-3-0-33-0-3------8--8-------7--7-------|

G------------------------------------------------|
D---7-7-77-7---5-5-55-5--------------------------|
A------7--7-------5--5-----8-8-88-8---7-7-77-77--|
E-----------------------------8--8-------7--7----|

Repeat Intro, Verse & Chorus:

Bridge: (play this x4)
G------------------|
D---7-7-7----7-----|
A---------7-9--9---|
E------------------|

Repeats Intro, Verse, & Chorus:

Repeat Chorus to Fade:
            
Submit corrections

comments powered by Disqus
↑ Back to top | Supremes Bass for Love Child. Lyrics for acoustic guitar and electric guitar. Tablatures and chords are parodies/interpretations of the original songs. You may use it for private study, scholarship, research or language learning purposes only