» » »

Step Back Tabs (ver.2)

Artists:  A B C D E F G H I J K L M N O P Q R S T U V W X Y Z # 

Step Back Tabs (ver.2)

Superheist
Rating:
0/5 (0 votes)

Tabs too difficult? Try these video lessons and learn fast.
                Step Back by Superheist.

Tuning, 
E
B
G
B
F#
B

Intro with little electronic sound bit

 just use the last 3 strings

the number of numbers is how many times you strum

B------------------4-4-4-4----------4-4-4-4---------4-4-4-4------------------------
F#-----------------4-4-4-4----------4-4-4-4---------4-4-4-4------------------------
B------------------4-4-4-4----------4-4-4-4---------4-4-4-4--------------------

Verse

B----4----5-5-5----4---5-5-5----4---5-5-5----4---5-5-5-5-5-5-5-5-5----------------
F#---4----5-5-5----4---5-5-5----4---5-5-5----4---5-5-5-5-5-5-5-5-5----------------
B----4----5-5-5----4---5-5-5-----4--5-5-5----4---5-5-5-5-5-5-5-5-5---------------
X2
Do that again when the singing starts but Palm mute.

CHOURUS
                                                                                                                          
B------0-0-0-0-0-0-0-0----7-7-7-7-7-7-7-7-----9-9-9-9-9-9-9-9-----5-5-5-5----2--0-0--
F#-----0-0-0-0-0-0-0-0----7-7-7-7-7-7-7-7------9-9-9-9-9-9-9-9----5-5-5-5-----2--0-0-2-0-0-2
B------0-0-0-0-0-0-0-0----7-7-7-7-7-7-7-7-----9-9-9-9-9-9-9-9-----5-5-5-5-----2--0-0-2-0-0-2
X1
verse

Chorus againbut at the end of the chorus x2 it has this extra bit

B-----9-9------5-5-----7-7-7-7-7-7-7-7-7--------------------
F#----9-9------5-5-----7-7-7-7-7-7-7-7-7------------------
B-----9-9------5-5-----7-7-7-7-7-7-7-7-7-----------------
X2

INTRO X1
VERSE X2
Chorus X4  I THINK!!!

AND THAT’S IT YOU WILL DEFENATLY HAVE TO LISTEN TO THE SONG.
Album......The Prize Recrute
Song.......Step Back
            
Tabs too difficult? Try these video lessons and learn fast.




comments powered by Disqus
↑ Back to top | Tablatures and chords are parodies/interpretations of the original songs. You may use it for private study, scholarship, research or language learning purposes only