» » »

Superheist, Step Back Tabs (ver.1)

Artists:  A B C D E F G H I J K L M N O P Q R S T U V W X Y Z # 

Step Back Tabs (ver.1)

Superheist Tabs
Rating:
0/5 (0 votes)
Step Back lessons Tabs too difficult? Try these video lessons and learn fast
                This is my first tab hope u enjoy it 

tuning standed or droped what ever you want

intro
Heavy Distortion 
---------------------------------------
---------------------------------------
--------------------------------------
--4-4-4-----4-4-4-4------4-4-4----
--4-4-4-----4-4-4-4------4-4-4----
--4-4-4-----4-4-4-4------4-4-4----


Verse x2
Heavy Distortion 
-----------------------------------------------
-----------------------------------------------
-----------------------------------------------
-4---6-6-6--4---6-6-6---4---6-5-6-5-6-6-
-4---6-6-6--4---6-6-6---4---6-5-6-5-6-6-
-4---6-6-6--4---6-6-6---4---6-5-6-5-6-6-


Do the verse again palm muted 

Chorus
Heavy Distortion 
-3-3-3-3-3-3-3--7-7-7-7-7-7-7--9-9-9-9-9-9-9--5-5-5-5-5-5-
-3-3-3-3-3-3-3--7-7-7-7-7-7-7--9-9-9-9-9-9-9--5-5-5-5-5-5-
-3-3-3-3-3-3-3--7-7-7-7-7-7-7--9-9-9-9-9-9-9--5-5-5-5-5-5-

Verse x2
Heavy Distortion 
-----------------------------------------------
-----------------------------------------------
-----------------------------------------------
-4---6-6-6--4---6-6-6---4---6-5-6-5-6-6-
-4---6-6-6--4---6-6-6---4---6-5-6-5-6-6-
-4---6-6-6--4---6-6-6---4---6-5-6-5-6-6-

Verse again palm muted

Heavy Distortion 
x 3
-3-3-3-3-3-3-3--7-7-7-7-7-7-7--9-9-9-9-9-9-9--5-5-5-5-5-5-
-3-3-3-3-3-3-3--7-7-7-7-7-7-7--9-9-9-9-9-9-9--5-5-5-5-5-5-
-3-3-3-3-3-3-3--7-7-7-7-7-7-7--9-9-9-9-9-9-9--5-5-5-5-5-5-

After 3rd time add this at the end

--7-7---5-5-----3-3-3-3-3-3-3-3---------------------------------
--7-7---5-5-----3-3-3-3-3-3-3-3---------------------------------
--7-7---5-5-----3-3-3-3-3-3-3-3---------------------------------

wait a bit till the electroic intro starts again
Heavy Distortion 
---------------------------------------
---------------------------------------
--------------------------------------
--4-4-4-----4-4-4-4------4-4-4----
--4-4-4-----4-4-4-4------4-4-4----
--4-4-4-----4-4-4-4------4-4-4----

Verse x2
Heavy Distortion 
-----------------------------------------------
-----------------------------------------------
-----------------------------------------------
-4---6-6-6--4---6-6-6---4---6-5-6-5-6-6-
-4---6-6-6--4---6-6-6---4---6-5-6-5-6-6-
-4---6-6-6--4---6-6-6---4---6-5-6-5-6-6-

Heavy Distortion 
x 3
-3-3-3-3-3-3-3--7-7-7-7-7-7-7--9-9-9-9-9-9-9--5-5-5-5-5-5-
-3-3-3-3-3-3-3--7-7-7-7-7-7-7--9-9-9-9-9-9-9--5-5-5-5-5-5-
-3-3-3-3-3-3-3--7-7-7-7-7-7-7--9-9-9-9-9-9-9--5-5-5-5-5-5-

After 3rd time add this at the end
x3
--7-7---5-5-----3-3-3-3-3-3-3-3---------------------------------
--7-7---5-5-----3-3-3-3-3-3-3-3---------------------------------
--7-7---5-5-----3-3-3-3-3-3-3-3---------------------------------


Great song by a great aussie band
            
Submit corrections

comments powered by Disqus
↑ Back to top | Superheist Tabs for Step Back. Lyrics for acoustic guitar and electric guitar. Tablatures and chords are parodies/interpretations of the original songs. You may use it for private study, scholarship, research or language learning purposes only