» » »

Romeo Tabs (ver.1)

Artists:  A B C D E F G H I J K L M N O P Q R S T U V W X Y Z # 

Romeo Tabs (ver.1)

Sunrise Avenue
Rating:
5/5 (1 vote)

Hard to play? Try these video lessons and learn fast.
                Sunrise Avenue - Romeo

Tuning : D# G# C# F# A# D#

Intro
-------------------------|
-------------------------|
-------------------------|
-------------------------|
--44-4--44-4--44-4--44-4-|
--22-2--22-2--22-2--22-2-|

---------------------------------------------------------------------|
---------------------------------------------------------------------|
---------------------------------------------------------------------|
------------77-7--44-4------------77-7--99-9--44-4--44-4-------------|
-44-4--44-4-55-5--22-2-44-4--44-4-55-5--77-7--22-2--22-2--44-4--44-4-|
-22-2--22-2------------22-2--22-2-------------------------22-2--22-2-|

----------------------------|
----------------------------|
----------------------------|
-77-7--77-7--99-9--99-9---2-|
-55-5--55-5--77-7--77-7---2-|
--------------------------0-|

Chorus
---------------------------------------------------------|
---------------------------------------------------------|
-----------------7777777777------------------------------|
-555555555555555-7777777777-5555555555555-99999999-xx-77-|
-555555555555555-5555555555-5555555555555-99999999-xx-77-|
-333333333333333------------3333333333333-77777777-xx-55-|

-----------------------------------------------------------------------|
-----------------------------------------------------------------------|
-----------------7777777777--------------------------------------------|
-555555555555555-7777777777-55555555555555-99999999-77777777-55555---5-|
-555555555555555-5555555555-55555555555555-99999999-77777777-55555---5-|
-333333333333333------------33333333333333-77777777-55555555-33333---3-|


---------------------------------------------------------------------|
---------------------------------------------------------------------|
---------------------------------------------------------------------|
------------77-7--44-4------------77-7--99-9--44-4--44-4-------------|
-44-4--44-4-55-5--22-2-44-4--44-4-55-5--77-7--22-2--22-2--44-4--44-4-|
-22-2--22-2------------22-2--22-2-------------------------22-2--22-2-|

--------------------------------------------|
--------------------------------------------|
--------------------------------------------|
-4444444444444---------------7777777777---2-|
-2222222222222-4444444444444-5555555555---2-|
---------------2222222222222--------------0-|

Chorus
---------------------------------------------------------|
---------------------------------------------------------|
-----------------7777777777------------------------------|
-555555555555555-7777777777-5555555555555-99999999-xx-77-|
-555555555555555-5555555555-5555555555555-99999999-xx-77-|
-333333333333333------------3333333333333-77777777-xx-55-|

-----------------------------------------------------------------------|
-----------------------------------------------------------------------|
-----------------7777777777--------------------------------------------|
-555555555555555-7777777777-55555555555555-99999999-77777777-55555---4-|
-555555555555555-5555555555-55555555555555-99999999-77777777-55555---4-|
-333333333333333------------33333333333333-77777777-55555555-33333---2-|

Solo
---------------------------------------------------|
---------------------------------------------------|
---------------------------------------------------|
-----676-------77-9-11-9b-----676-------77-9-11-9b-|
---9-----7---7--------------9-----7---7------------|
-9---------9--------------9---------9--------------|

------------------------------------------------------------|
------------------------------------------------------------|
------------------------------------------------------------|
-----6-7-9-7-67-7-2-4b--76---76---76---7-9-7-6b------6-7-9b-|
---9-----------------------7----7----7-----------777--------|
-9----------------------------------------------------------|

Chorus 3x
---------------------------------------------------------|
---------------------------------------------------------|
-----------------7777777777------------------------------|
-555555555555555-7777777777-5555555555555-99999999-xx-77-|
-555555555555555-5555555555-5555555555555-99999999-xx-77-|
-333333333333333------------3333333333333-77777777-xx-55-|

-----------------------------------------------------------------------|
-----------------------------------------------------------------------|
-----------------7777777777--------------------------------------------|
-555555555555555-7777777777-55555555555555-99999999-77777777-55555-----|
-555555555555555-5555555555-55555555555555-99999999-77777777-55555-----|
-333333333333333------------33333333333333-77777777-55555555-33333-----|

---
---
---
-4-
-4-
-2-
            
Hard to play? Try these video lessons and learn fast. | Correct




comments powered by Disqus
↑ Back to top | Tablatures and chords are parodies/interpretations of the original songs. You may use it for private study, scholarship, research or language learning purposes only