» » »

Faurytale Gone Bad Bass tabs (ver.1)

Artists:  A B C D E F G H I J K L M N O P Q R S T U V W X Y Z # 

Faurytale Gone Bad Bass tabs (ver.1)

Sunrise Avenue
Rating:
0/5 (0 votes)

Hard to play? Try these video lessons and learn fast.
                             Sunrise avenue-Farytale gone bad

 Bridge

G|-----------------|
D|-----------------|
A|-----------------|
E|-2-2-2-2-2-2-2-2-|

G|-----------------|
D|-----------------|
A|-4-4-4-4---------|
E|---------4-4-4-4-|

G|-----------------|
D|-----------------|
A|-2-2-2-2-2-2-2-2-|
E|-----------------|

G|-----------------|
D|-----------------|
A|-4-4-4-4---------|
E|---------4-4-4-4-|

G|-----------------|
D|-----------------|
A|-----------------|
E|-2-2-2-2-2-2-2-2-|

G|-----------------|
D|-----------------|
A|-4-4-4-4---------|
E|---------4-4-4-4-|

G|-----------------|
D|-----------------|
A|-----------------|
E|-2-2-2-2-2-2-2-4-|

G|-----------------|
D|-----------------|
A|-----------------|
E|-4-4-4-4-4-4-4-4-|

 Chorus

G|-----------------|
D|-----------------|
A|-1-1-1-1-1-1-1-1-|
E|-----------------|

G|-----------------|
D|-----------------|
A|-1-1-1-1-1-1-1---|
E|---------------2-|

G|-----------------|
D|-----------------|
A|-----------------|
E|-2-2-2-2-2-2-2-2-|

G|-----------------|
D|-----------------|
A|-----------------|
E|-2-2-2-2-2-2-2-4-|

G|-----------------|
D|-----------------|
A|-----------------|
E|-4-4-4-4-4-4-4-4-|

G|-----------------|
D|-----------------|
A|-----------------|
E|-1-1-1-1-1-1-1-2-|

G|-----------------|
D|-----------------|
A|-----------------|
E|-2-2-2-2-2-2-2-2-|

G|-----------------|
D|-----------------|
A|-----------------|
E|---4-4-4-4-4-4-4-|

G|-----------------|
D|-----------------|
A|-1-1-1-1-1-1-1-1-|
E|-----------------|

G|-----------------|
D|-----------------|
A|-1-1-1-1-1-1-1---|
E|---------------2-|

G|-----------------|
D|-----------------|
A|-----------------|
E|-2-2-2-2-2-2-2-2-|

G|-----------------|
D|-----------------|
A|-----------------|
E|-2-2-2-2-2-2-2-4-|

G|-----------------|
D|-----------------|
A|-----------------|
E|-4-4-4-4-4-4-4-4-|

G|-----------------|
D|-----------------|
A|-----------------|
E|-1-1-1-1-1-1-1-2-|

G|-----------------|
D|-----------------|
A|-----------------|
E|-2-2-2-2-2-2-2-2-|

G|-----------------|
D|-----------------|
A|-----------------|
E|-4-4-4-4-4-4-4---|
            
Hard to play? Try these video lessons and learn fast. | Correct




comments powered by Disqus
↑ Back to top | Tablatures and chords are parodies/interpretations of the original songs. You may use it for private study, scholarship, research or language learning purposes only